  0
SECTION
  2
HEADER
  9
$ACADVER
  1
AC1018
  9
$ACADMAINTVER
 70
     0
  9
$DWGCODEPAGE
  3
ANSI_1252
  9
$INSBASE
 10
0.0
 20
0.0
 30
0.0
  9
$EXTMIN
 10
-0.5
 20
-0.5
 30
-0.5
  9
$EXTMAX
 10
5.0
 20
5.0
 30
5.0
  9
$LIMMIN
 10
-0.5
 20
-0.5
  9
$LIMMAX
 10
5.0
 20
5.0
  9
$ORTHOMODE
 70
     0
  9
$REGENMODE
 70
     1
  9
$FILLMODE
 70
     1
  9
$QTEXTMODE
 70
     0
  9
$MIRRTEXT
 70
     1
  9
$LTSCALE
 40
1.0
  9
$ATTMODE
 70
     1
  9
$TEXTSIZE
 40
0.2
  9
$TRACEWID
 40
0.05
  9
$TEXTSTYLE
  7
Standard
  9
$CLAYER
  8
0
  9
$CELTYPE
  6
ByLayer
  9
$CECOLOR
 62
   256
  9
$CELTSCALE
 40
1.0
  9
$DISPSILH
 70
     0
  9
$DIMSCALE
 40
1.0
  9
$DIMASZ
 40
0.18
  9
$DIMEXO
 40
0.0625
  9
$DIMDLI
 40
0.38
  9
$DIMRND
 40
0.0
  9
$DIMDLE
 40
0.0
  9
$DIMEXE
 40
0.18
  9
$DIMTP
 40
0.0
  9
$DIMTM
 40
0.0
  9
$DIMTXT
 40
0.18
  9
$DIMCEN
 40
0.09
  9
$DIMTSZ
 40
0.0
  9
$DIMTOL
 70
     0
  9
$DIMLIM
 70
     0
  9
$DIMTIH
 70
     1
  9
$DIMTOH
 70
     1
  9
$DIMSE1
 70
     0
  9
$DIMSE2
 70
     0
  9
$DIMTAD
 70
     0
  9
$DIMZIN
 70
     0
  9
$DIMBLK
  1

  9
$DIMASO
 70
     1
  9
$DIMSHO
 70
     1
  9
$DIMPOST
  1

  9
$DIMAPOST
  1

  9
$DIMALT
 70
     0
  9
$DIMALTD
 70
     2
  9
$DIMALTF
 40
25.4
  9
$DIMLFAC
 40
1.0
  9
$DIMTOFL
 70
     0
  9
$DIMTVP
 40
0.0
  9
$DIMTIX
 70
     0
  9
$DIMSOXD
 70
     0
  9
$DIMSAH
 70
     0
  9
$DIMBLK1
  1

  9
$DIMBLK2
  1

  9
$DIMSTYLE
  2
Standard
  9
$DIMCLRD
 70
     0
  9
$DIMCLRE
 70
     0
  9
$DIMCLRT
 70
     0
  9
$DIMTFAC
 40
1.0
  9
$DIMGAP
 40
0.09
  9
$DIMJUST
 70
     0
  9
$DIMSD1
 70
     0
  9
$DIMSD2
 70
     0
  9
$DIMTOLJ
 70
     1
  9
$DIMTZIN
 70
     0
  9
$DIMALTZ
 70
     0
  9
$DIMALTTZ
 70
     0
  9
$DIMUPT
 70
     0
  9
$DIMDEC
 70
     4
  9
$DIMTDEC
 70
     4
  9
$DIMALTU
 70
     2
  9
$DIMALTTD
 70
     2
  9
$DIMTXSTY
  7
Standard
  9
$DIMAUNIT
 70
     0
  9
$DIMADEC
 70
     0
  9
$DIMALTRND
 40
0.0
  9
$DIMAZIN
 70
     0
  9
$DIMDSEP
 70
    46
  9
$DIMATFIT
 70
     3
  9
$DIMFRAC
 70
     0
  9
$DIMLDRBLK
  1

  9
$DIMLUNIT
 70
     2
  9
$DIMLWD
 70
    -2
  9
$DIMLWE
 70
    -2
  9
$DIMTMOVE
 70
     0
  9
$LUNITS
 70
     2
  9
$LUPREC
 70
     4
  9
$SKETCHINC
 40
0.1
  9
$FILLETRAD
 40
0.5
  9
$AUNITS
 70
     0
  9
$AUPREC
 70
     0
  9
$MENU
  1
.
  9
$ELEVATION
 40
0.0
  9
$PELEVATION
 40
0.0
  9
$THICKNESS
 40
0.0
  9
$LIMCHECK
 70
     0
  9
$CHAMFERA
 40
0.0
  9
$CHAMFERB
 40
0.0
  9
$CHAMFERC
 40
0.0
  9
$CHAMFERD
 40
0.0
  9
$SKPOLY
 70
     0
  9
$TDCREATE
 40
2460054.588838032
  9
$TDUCREATE
 40
2460054.505504699
  9
$TDUPDATE
 40
2460054.58883853
  9
$TDUUPDATE
 40
2460054.505505197
  9
$TDINDWG
 40
0.0000000116
  9
$TDUSRTIMER
 40
0.0000000116
  9
$USRTIMER
 70
     1
  9
$ANGBASE
 50
0.0
  9
$ANGDIR
 70
     0
  9
$PDMODE
 70
     0
  9
$PDSIZE
 40
0.0
  9
$PLINEWID
 40
0.0
  9
$SPLFRAME
 70
     0
  9
$SPLINETYPE
 70
     6
  9
$SPLINESEGS
 70
     8
  9
$HANDSEED
  5
20D
  9
$SURFTAB1
 70
     6
  9
$SURFTAB2
 70
     6
  9
$SURFTYPE
 70
     6
  9
$SURFU
 70
     6
  9
$SURFV
 70
     6
  9
$UCSBASE
  2

  9
$UCSNAME
  2

  9
$UCSORG
 10
0.0
 20
0.0
 30
0.0
  9
$UCSXDIR
 10
1.0
 20
0.0
 30
0.0
  9
$UCSYDIR
 10
0.0
 20
1.0
 30
0.0
  9
$UCSORTHOREF
  2

  9
$UCSORTHOVIEW
 70
     0
  9
$UCSORGTOP
 10
0.0
 20
0.0
 30
0.0
  9
$UCSORGBOTTOM
 10
0.0
 20
0.0
 30
0.0
  9
$UCSORGLEFT
 10
0.0
 20
0.0
 30
0.0
  9
$UCSORGRIGHT
 10
0.0
 20
0.0
 30
0.0
  9
$UCSORGFRONT
 10
0.0
 20
0.0
 30
0.0
  9
$UCSORGBACK
 10
0.0
 20
0.0
 30
0.0
  9
$PUCSBASE
  2

  9
$PUCSNAME
  2

  9
$PUCSORG
 10
0.0
 20
0.0
 30
0.0
  9
$PUCSXDIR
 10
1.0
 20
0.0
 30
0.0
  9
$PUCSYDIR
 10
0.0
 20
1.0
 30
0.0
  9
$PUCSORTHOREF
  2

  9
$PUCSORTHOVIEW
 70
     0
  9
$PUCSORGTOP
 10
0.0
 20
0.0
 30
0.0
  9
$PUCSORGBOTTOM
 10
0.0
 20
0.0
 30
0.0
  9
$PUCSORGLEFT
 10
0.0
 20
0.0
 30
0.0
  9
$PUCSORGRIGHT
 10
0.0
 20
0.0
 30
0.0
  9
$PUCSORGFRONT
 10
0.0
 20
0.0
 30
0.0
  9
$PUCSORGBACK
 10
0.0
 20
0.0
 30
0.0
  9
$USERI1
 70
     0
  9
$USERI2
 70
     0
  9
$USERI3
 70
     0
  9
$USERI4
 70
     0
  9
$USERI5
 70
     0
  9
$USERR1
 40
0.0
  9
$USERR2
 40
0.0
  9
$USERR3
 40
0.0
  9
$USERR4
 40
0.0
  9
$USERR5
 40
0.0
  9
$WORLDVIEW
 70
     1
  9
$SHADEDGE
 70
     3
  9
$SHADEDIF
 70
    70
  9
$TILEMODE
 70
     1
  9
$MAXACTVP
 70
    64
  9
$PINSBASE
 10
0.0
 20
0.0
 30
0.0
  9
$PLIMCHECK
 70
     0
  9
$PEXTMIN
 10
-0.5
 20
-0.5
 30
-0.5
  9
$PEXTMAX
 10
5.0
 20
5.0
 30
5.0
  9
$PLIMMIN
 10
-0.5
 20
-0.5
  9
$PLIMMAX
 10
5.0
 20
5.0
  9
$UNITMODE
 70
     0
  9
$VISRETAIN
 70
     1
  9
$PLINEGEN
 70
     0
  9
$PSLTSCALE
 70
     1
  9
$TREEDEPTH
 70
  3020
  9
$CMLSTYLE
  2
Standard
  9
$CMLJUST
 70
     0
  9
$CMLSCALE
 40
1.0
  9
$PROXYGRAPHICS
 70
     1
  9
$MEASUREMENT
 70
     1
  9
$CELWEIGHT
370
    18
  9
$ENDCAPS
280
     0
  9
$JOINSTYLE
280
     0
  9
$LWDISPLAY
290
     1
  9
$INSUNITS
 70
     4
  9
$HYPERLINKBASE
  1

  9
$STYLESHEET
  1

  9
$XEDIT
290
     1
  9
$CEPSNTYPE
380
     0
  9
$PSTYLEMODE
290
     1
  9
$FINGERPRINTGUID
  2
{DCD48FA0-ACA9-4669-8FB8-5FAE8878134C}
  9
$VERSIONGUID
  2
{FAEB1C32-E019-11D5-929B-00C0DF256EC4}
  9
$EXTNAMES
290
     1
  9
$PSVPSCALE
 40
0.0
  9
$OLESTARTUP
290
     0
  9
$SORTENTS
280
   127
  9
$INDEXCTL
280
     0
  9
$HIDETEXT
280
     1
  9
$XCLIPFRAME
290
     0
  9
$HALOGAP
280
     0
  9
$OBSCOLOR
 70
   257
  9
$OBSLTYPE
280
     0
  9
$INTERSECTIONDISPLAY
280
     0
  9
$INTERSECTIONCOLOR
 70
   257
  9
$DIMASSOC
280
     2
  9
$PROJECTNAME
  1

  0
ENDSEC
  0
SECTION
  2
CLASSES
  0
CLASS
  1
ACDBDICTIONARYWDFLT
  2
AcDbDictionaryWithDefault
  3
ObjectDBX Classes
 90
        0
 91
        3
280
     0
281
     0
  0
CLASS
  1
VISUALSTYLE
  2
AcDbVisualStyle
  3
ObjectDBX Classes
 90
     4095
 91
        3
280
     0
281
     0
  0
CLASS
  1
MATERIAL
  2
AcDbMaterial
  3
ObjectDBX Classes
 90
     1153
 91
        3
280
     0
281
     0
  0
CLASS
  1
SCALE
  2
AcDbScale
  3
ObjectDBX Classes
 90
     1153
 91
        3
280
     0
281
     0
  0
CLASS
  1
TABLESTYLE
  2
AcDbTableStyle
  3
ObjectDBX Classes
 90
     4095
 91
        3
280
     0
281
     0
  0
CLASS
  1
MLEADERSTYLE
  2
AcDbMLeaderStyle
  3
ACDB_MLEADERSTYLE_CLASS
 90
     4095
 91
        3
280
     0
281
     0
  0
CLASS
  1
SUN
  2
AcDbSun
  3
SCENEOE
 90
     1153
 91
        3
280
     0
281
     0
  0
CLASS
  1
DICTIONARYVAR
  2
AcDbDictionaryVar
  3
ObjectDBX Classes
 90
        0
 91
        3
280
     0
281
     0
  0
CLASS
  1
CELLSTYLEMAP
  2
AcDbCellStyleMap
  3
ObjectDBX Classes
 90
     1152
 91
        3
280
     0
281
     0
  0
ENDSEC
  0
SECTION
  2
TABLES
  0
TABLE
  2
VPORT
  5
8
102
{ACAD_XDICTIONARY
360
1C6
102
}
330
0
100
AcDbSymbolTable
 70
    16
  0
VPORT
  5
29
330
8
100
AcDbSymbolTableRecord
100
AcDbViewportTableRecord
  2
*Active
 70
     0
 10
0.0
 20
0.0
 11
1.0
 21
1.0
 12
593.105903
 22
406.378853
 13
0.0
 23
0.0
 14
0.5
 24
0.5
 15
0.5
 25
0.5
 16
0.0
 26
0.0
 36
1.0
 17
0.0
 27
0.0
 37
0.0
 40
254.0
 41
0.069908
 42
50.0
 43
1206.772979
 44
-1206.772979
 50
0.0
 51
0.0
 71
     0
 72
   100
 73
     1
 74
     3
 75
     0
 76
     0
 77
     0
 78
     0
281
     0
 65
     1
110
0.0
120
0.0
130
0.0
111
1.0
121
0.0
131
0.0
112
0.0
122
1.0
132
0.0
 79
     0
146
0.0
  0
VPORT
  5
1B7
330
8
100
AcDbSymbolTableRecord
100
AcDbViewportTableRecord
  2
L1
 70
     0
 10
0.0
 20
0.0
 11
1.0
 21
1.0
 12
593.105903
 22
406.378853
 13
0.0
 23
0.0
 14
0.5
 24
0.5
 15
0.5
 25
0.5
 16
0.0
 26
0.0
 36
1.0
 17
0.0
 27
0.0
 37
0.0
 40
254.0
 41
0.069908
 42
50.0
 43
1206.772979
 44
-1206.772979
 50
0.0
 51
0.0
 71
     0
 72
   100
 73
     1
 74
     3
 75
     0
 76
     0
 77
     0
 78
     0
281
     0
 65
     1
110
0.0
120
0.0
130
0.0
111
1.0
121
0.0
131
0.0
112
0.0
122
1.0
132
0.0
 79
     0
146
0.0
  0
VPORT
  5
1B8
330
8
100
AcDbSymbolTableRecord
100
AcDbViewportTableRecord
  2
L2
 70
     0
 10
0.0
 20
0.0
 11
0.5
 21
1.0
 12
0.0
 22
0.0
 13
0.0
 23
0.0
 14
0.5
 24
0.5
 15
0.5
 25
0.5
 16
0.0
 26
-1.0
 36
0.0
 17
0.0
 27
0.0
 37
0.0
 40
1554.140024
 41
0.011425
 42
50.0
 43
799.170128
 44
-799.170128
 50
0.0
 51
0.0
 71
     0
 72
   100
 73
     1
 74
     3
 75
     0
 76
     0
 77
     0
 78
     0
281
     0
 65
     1
110
0.0
120
0.0
130
0.0
111
1.0
121
0.0
131
0.0
112
0.0
122
1.0
132
0.0
 79
     0
146
0.0
  0
VPORT
  5
1B9
330
8
100
AcDbSymbolTableRecord
100
AcDbViewportTableRecord
  2
L2
 70
     0
 10
0.5
 20
0.0
 11
1.0
 21
1.0
 12
0.0
 22
0.0
 13
0.0
 23
0.0
 14
0.5
 24
0.5
 15
0.5
 25
0.5
 16
1.0
 26
0.0
 36
0.0
 17
0.0
 27
0.0
 37
0.0
 40
1554.140024
 41
0.011425
 42
50.0
 43
787.379708
 44
-787.379708
 50
0.0
 51
0.0
 71
     0
 72
   100
 73
     1
 74
     3
 75
     0
 76
     0
 77
     0
 78
     0
281
     0
 65
     1
110
0.0
120
0.0
130
0.0
111
1.0
121
0.0
131
0.0
112
0.0
122
1.0
132
0.0
 79
     0
146
0.0
  0
VPORT
  5
1BA
330
8
100
AcDbSymbolTableRecord
100
AcDbViewportTableRecord
  2
L3
 70
     0
 10
0.0
 20
0.5
 11
1.0
 21
1.0
 12
593.105903
 22
406.378853
 13
0.0
 23
0.0
 14
0.5
 24
0.5
 15
0.5
 25
0.5
 16
0.0
 26
0.0
 36
1.0
 17
0.0
 27
0.0
 37
0.0
 40
254.0
 41
0.069908
 42
50.0
 43
1206.772979
 44
-1206.772979
 50
0.0
 51
0.0
 71
     0
 72
   100
 73
     1
 74
     3
 75
     0
 76
     0
 77
     0
 78
     0
281
     0
 65
     1
110
0.0
120
0.0
130
0.0
111
1.0
121
0.0
131
0.0
112
0.0
122
1.0
132
0.0
 79
     0
146
0.0
  0
VPORT
  5
1BB
330
8
100
AcDbSymbolTableRecord
100
AcDbViewportTableRecord
  2
L3
 70
     0
 10
0.0
 20
0.0
 11
1.0
 21
0.5
 12
0.0
 22
0.0
 13
0.0
 23
0.0
 14
0.5
 24
0.5
 15
0.5
 25
0.5
 16
0.0
 26
-1.0
 36
0.0
 17
0.0
 27
0.0
 37
0.0
 40
1554.140024
 41
0.011425
 42
50.0
 43
799.170128
 44
-799.170128
 50
0.0
 51
0.0
 71
     0
 72
   100
 73
     1
 74
     3
 75
     0
 76
     0
 77
     0
 78
     0
281
     0
 65
     1
110
0.0
120
0.0
130
0.0
111
1.0
121
0.0
131
0.0
112
0.0
122
1.0
132
0.0
 79
     0
146
0.0
  0
VPORT
  5
1BC
330
8
100
AcDbSymbolTableRecord
100
AcDbViewportTableRecord
  2
L4
 70
     0
 10
0.0
 20
0.5
 11
0.5
 21
1.0
 12
593.105903
 22
406.378853
 13
0.0
 23
0.0
 14
0.5
 24
0.5
 15
0.5
 25
0.5
 16
0.0
 26
0.0
 36
1.0
 17
0.0
 27
0.0
 37
0.0
 40
254.0
 41
0.069908
 42
50.0
 43
1206.772979
 44
-1206.772979
 50
0.0
 51
0.0
 71
     0
 72
   100
 73
     1
 74
     3
 75
     0
 76
     0
 77
     0
 78
     0
281
     0
 65
     1
110
0.0
120
0.0
130
0.0
111
1.0
121
0.0
131
0.0
112
0.0
122
1.0
132
0.0
 79
     0
146
0.0
  0
VPORT
  5
1BD
330
8
100
AcDbSymbolTableRecord
100
AcDbViewportTableRecord
  2
L4
 70
     0
 10
0.0
 20
0.0
 11
0.5
 21
0.5
 12
0.0
 22
0.0
 13
0.0
 23
0.0
 14
0.5
 24
0.5
 15
0.5
 25
0.5
 16
0.0
 26
-1.0
 36
0.0
 17
0.0
 27
0.0
 37
0.0
 40
1554.140024
 41
0.011425
 42
50.0
 43
799.170128
 44
-799.170128
 50
0.0
 51
0.0
 71
     0
 72
   100
 73
     1
 74
     3
 75
     0
 76
     0
 77
     0
 78
     0
281
     0
 65
     1
110
0.0
120
0.0
130
0.0
111
1.0
121
0.0
131
0.0
112
0.0
122
1.0
132
0.0
 79
     0
146
0.0
  0
VPORT
  5
1BE
330
8
100
AcDbSymbolTableRecord
100
AcDbViewportTableRecord
  2
L4
 70
     0
 10
0.5
 20
0.0
 11
1.0
 21
0.5
 12
0.0
 22
0.0
 13
0.0
 23
0.0
 14
0.5
 24
0.5
 15
0.5
 25
0.5
 16
1.0
 26
0.0
 36
0.0
 17
0.0
 27
0.0
 37
0.0
 40
1554.140024
 41
0.011425
 42
50.0
 43
787.379708
 44
-787.379708
 50
0.0
 51
0.0
 71
     0
 72
   100
 73
     1
 74
     3
 75
     0
 76
     0
 77
     0
 78
     0
281
     0
 65
     1
110
0.0
120
0.0
130
0.0
111
1.0
121
0.0
131
0.0
112
0.0
122
1.0
132
0.0
 79
     0
146
0.0
  0
VPORT
  5
1BF
330
8
100
AcDbSymbolTableRecord
100
AcDbViewportTableRecord
  2
L4
 70
     0
 10
0.5
 20
0.5
 11
1.0
 21
1.0
 12
0.0
 22
0.0
 13
0.0
 23
0.0
 14
0.5
 24
0.5
 15
0.5
 25
0.5
 16
0.5773502691896258
 26
-0.5773502691896258
 36
0.5773502691896258
 17
0.0
 27
0.0
 37
0.0
 40
1525.037316
 41
0.011643
 42
50.0
 43
794.116007
 44
-794.116007
 50
0.0
 51
0.0
 71
     0
 72
   100
 73
     1
 74
     3
 75
     0
 76
     0
 77
     0
 78
     0
281
     0
 65
     1
110
0.0
120
0.0
130
0.0
111
1.0
121
0.0
131
0.0
112
0.0
122
1.0
132
0.0
 79
     0
146
0.0
  0
VPORT
  5
1C0
330
8
100
AcDbSymbolTableRecord
100
AcDbViewportTableRecord
  2
L6
 70
     0
 10
0.0
 20
0.5
 11
0.333333
 21
1.0
 12
0.0
 22
0.0
 13
0.0
 23
0.0
 14
0.5
 24
0.5
 15
0.5
 25
0.5
 16
0.7188730927569433
 26
-0.5850486126764433
 36
0.3754192287502549
 17
0.0
 27
0.0
 37
0.0
 40
1609.344902
 41
0.011034
 42
50.0
 43
833.240238
 44
-833.240238
 50
0.0
 51
0.0
 71
     0
 72
   100
 73
     1
 74
     3
 75
     0
 76
     0
 77
     0
 78
     0
281
     0
 65
     1
110
0.0
120
0.0
130
0.0
111
1.0
121
0.0
131
0.0
112
0.0
122
1.0
132
0.0
 79
     0
146
0.0
  0
VPORT
  5
1C1
330
8
100
AcDbSymbolTableRecord
100
AcDbViewportTableRecord
  2
L6
 70
     0
 10
0.0
 20
0.0
 11
0.333333
 21
0.5
 12
0.0
 22
0.0
 13
0.0
 23
0.0
 14
0.5
 24
0.5
 15
0.5
 25
0.5
 16
-1.0
 26
0.0
 36
0.0
 17
0.0
 27
0.0
 37
0.0
 40
1554.140024
 41
0.011425
 42
50.0
 43
787.379708
 44
-787.379708
 50
0.0
 51
0.0
 71
     0
 72
   100
 73
     1
 74
     3
 75
     0
 76
     0
 77
     0
 78
     0
281
     0
 65
     1
110
0.0
120
0.0
130
0.0
111
1.0
121
0.0
131
0.0
112
0.0
122
1.0
132
0.0
 79
     0
146
0.0
  0
VPORT
  5
1C2
330
8
100
AcDbSymbolTableRecord
100
AcDbViewportTableRecord
  2
L6
 70
     0
 10
0.333333
 20
0.5
 11
0.666667
 21
1.0
 12
593.105903
 22
406.378853
 13
0.0
 23
0.0
 14
0.5
 24
0.5
 15
0.5
 25
0.5
 16
0.0
 26
0.0
 36
1.0
 17
0.0
 27
0.0
 37
0.0
 40
254.0
 41
0.069908
 42
50.0
 43
1206.772979
 44
-1206.772979
 50
0.0
 51
0.0
 71
     0
 72
   100
 73
     1
 74
     3
 75
     0
 76
     0
 77
     0
 78
     0
281
     0
 65
     1
110
0.0
120
0.0
130
0.0
111
1.0
121
0.0
131
0.0
112
0.0
122
1.0
132
0.0
 79
     0
146
0.0
  0
VPORT
  5
1C3
330
8
100
AcDbSymbolTableRecord
100
AcDbViewportTableRecord
  2
L6
 70
     0
 10
0.333333
 20
0.0
 11
0.666667
 21
0.5
 12
0.0
 22
0.0
 13
0.0
 23
0.0
 14
0.5
 24
0.5
 15
0.5
 25
0.5
 16
0.0
 26
-1.0
 36
0.0
 17
0.0
 27
0.0
 37
0.0
 40
1554.140024
 41
0.011425
 42
50.0
 43
799.170128
 44
-799.170128
 50
0.0
 51
0.0
 71
     0
 72
   100
 73
     1
 74
     3
 75
     0
 76
     0
 77
     0
 78
     0
281
     0
 65
     1
110
0.0
120
0.0
130
0.0
111
1.0
121
0.0
131
0.0
112
0.0
122
1.0
132
0.0
 79
     0
146
0.0
  0
VPORT
  5
1C4
330
8
100
AcDbSymbolTableRecord
100
AcDbViewportTableRecord
  2
L6
 70
     0
 10
0.666667
 20
0.5
 11
1.0
 21
1.0
 12
0.0
 22
0.0
 13
0.0
 23
0.0
 14
0.5
 24
0.5
 15
0.5
 25
0.5
 16
0.5773502691896258
 26
-0.5773502691896258
 36
0.5773502691896258
 17
0.0
 27
0.0
 37
0.0
 40
1525.037316
 41
0.011643
 42
50.0
 43
794.116007
 44
-794.116007
 50
0.0
 51
0.0
 71
     0
 72
   100
 73
     1
 74
     3
 75
     0
 76
     0
 77
     0
 78
     0
281
     0
 65
     1
110
0.0
120
0.0
130
0.0
111
1.0
121
0.0
131
0.0
112
0.0
122
1.0
132
0.0
 79
     0
146
0.0
  0
VPORT
  5
1C5
330
8
100
AcDbSymbolTableRecord
100
AcDbViewportTableRecord
  2
L6
 70
     0
 10
0.666667
 20
0.0
 11
1.0
 21
0.5
 12
0.0
 22
0.0
 13
0.0
 23
0.0
 14
0.5
 24
0.5
 15
0.5
 25
0.5
 16
1.0
 26
0.0
 36
0.0
 17
0.0
 27
0.0
 37
0.0
 40
1554.140024
 41
0.011425
 42
50.0
 43
787.379708
 44
-787.379708
 50
0.0
 51
0.0
 71
     0
 72
   100
 73
     1
 74
     3
 75
     0
 76
     0
 77
     0
 78
     0
281
     0
 65
     1
110
0.0
120
0.0
130
0.0
111
1.0
121
0.0
131
0.0
112
0.0
122
1.0
132
0.0
 79
     0
146
0.0
  0
ENDTAB
  0
TABLE
  2
LTYPE
  5
5
330
0
100
AcDbSymbolTable
 70
     6
  0
LTYPE
  5
14
330
5
100
AcDbSymbolTableRecord
100
AcDbLinetypeTableRecord
  2
ByBlock
 70
     0
  3

 72
    65
 73
     0
 40
0.0
  0
LTYPE
  5
15
330
5
100
AcDbSymbolTableRecord
100
AcDbLinetypeTableRecord
  2
ByLayer
 70
     0
  3

 72
    65
 73
     0
 40
0.0
  0
LTYPE
  5
16
330
5
100
AcDbSymbolTableRecord
100
AcDbLinetypeTableRecord
  2
Continuous
 70
     0
  3
Solid line
 72
    65
 73
     0
 40
0.0
  0
LTYPE
  5
6E
330
5
100
AcDbSymbolTableRecord
100
AcDbLinetypeTableRecord
  2
CENTER
 70
     0
  3
____ _ ____ _ ____ _ ____
 72
    65
 73
     4
 40
47.4
 49
22.0
 74
     4
 75
     0
340
0
 46
0.0
 50
0.0
 44
0.0
 45
0.0
 49
-8.5
 74
     4
 75
     0
340
0
 46
0.0
 50
0.0
 44
0.0
 45
0.0
 49
8.5
 74
     4
 75
     0
340
0
 46
0.0
 50
0.0
 44
0.0
 45
0.0
 49
-8.5
 74
     4
 75
     0
340
0
 46
0.0
 50
0.0
 44
0.0
 45
0.0
  0
LTYPE
  5
6F
330
5
100
AcDbSymbolTableRecord
100
AcDbLinetypeTableRecord
  2
DASHDOT
 70
     0
  3
_._._._._._._._._._._._._._._._.
 72
    65
 73
     4
 40
70.0
 49
31.0
 74
     4
 75
     0
340
0
 46
0.0
 50
0.0
 44
0.0
 45
0.0
 49
-13.0
 74
     4
 75
     0
340
0
 46
0.0
 50
0.0
 44
0.0
 45
0.0
 49
13.0
 74
     4
 75
     0
340
0
 46
0.0
 50
0.0
 44
0.0
 45
0.0
 49
-13.0
 74
     4
 75
     0
340
0
 46
0.0
 50
0.0
 44
0.0
 45
0.0
  0
LTYPE
  5
70
330
5
100
AcDbSymbolTableRecord
100
AcDbLinetypeTableRecord
  2
DASHED
 70
     0
  3
__ __ __ __ __ __ __ __ __
 72
    65
 73
     2
 40
25.72
 49
12.86
 74
     4
 75
     0
340
0
 46
0.0
 50
0.0
 44
0.0
 45
0.0
 49
-12.86
 74
     4
 75
     0
340
0
 46
0.0
 50
0.0
 44
0.0
 45
0.0
  0
LTYPE
  5
71
330
5
100
AcDbSymbolTableRecord
100
AcDbLinetypeTableRecord
  2
DOT
 70
     0
  3
.........................
 72
    65
 73
     2
 40
10.0
 49
0.0
 74
     4
 75
     0
340
0
 46
0.0
 50
0.0
 44
0.0
 45
0.0
 49
-10.0
 74
     4
 75
     0
340
0
 46
0.0
 50
0.0
 44
0.0
 45
0.0
  0
LTYPE
  5
72
330
5
100
AcDbSymbolTableRecord
100
AcDbLinetypeTableRecord
  2
PHANTOM
 70
     0
  3
____ _ _ ____ _ _ _____ _ _ ____
 72
    65
 73
     6
 40
50.5
 49
18.0
 74
     4
 75
     0
340
0
 46
0.0
 50
0.0
 44
0.0
 45
0.0
 49
-6.5
 74
     4
 75
     0
340
0
 46
0.0
 50
0.0
 44
0.0
 45
0.0
 49
6.5
 74
     4
 75
     0
340
0
 46
0.0
 50
0.0
 44
0.0
 45
0.0
 49
-6.5
 74
     4
 75
     0
340
0
 46
0.0
 50
0.0
 44
0.0
 45
0.0
 49
6.5
 74
     4
 75
     0
340
0
 46
0.0
 50
0.0
 44
0.0
 45
0.0
 49
-6.5
 74
     4
 75
     0
340
0
 46
0.0
 50
0.0
 44
0.0
 45
0.0
  0
ENDTAB
  0
TABLE
  2
LAYER
  5
2
330
0
100
AcDbSymbolTable
 70
     3
  0
LAYER
  5
10
330
2
100
AcDbSymbolTableRecord
100
AcDbLayerTableRecord
  2
0
 70
     0
 62
     7
  6
Continuous
370
    -3
390
F
  0
LAYER
  5
74
330
2
100
AcDbSymbolTableRecord
100
AcDbLayerTableRecord
  2
2
 70
     0
 62
     7
420
 16777215
  6
Continuous
370
    -3
390
F
  0
LAYER
  5
79
330
2
100
AcDbSymbolTableRecord
100
AcDbLayerTableRecord
  2
1
 70
     0
 62
     7
420
 16777215
  6
Continuous
370
    -3
390
F
  0
ENDTAB
  0
TABLE
  2
STYLE
  5
3
330
0
100
AcDbSymbolTable
 70
     1
  0
STYLE
  5
11
330
3
100
AcDbSymbolTableRecord
100
AcDbTextStyleTableRecord
  2
Standard
 70
     0
 40
0.0
 41
1.0
 50
0.0
 71
     0
 42
0.2
  3
txt
  4

  0
ENDTAB
  0
TABLE
  2
VIEW
  5
6
330
0
100
AcDbSymbolTable
 70
     0
  0
ENDTAB
  0
TABLE
  2
UCS
  5
7
330
0
100
AcDbSymbolTable
 70
     0
  0
ENDTAB
  0
TABLE
  2
APPID
  5
9
330
0
100
AcDbSymbolTable
 70
     2
  0
APPID
  5
12
330
9
100
AcDbSymbolTableRecord
100
AcDbRegAppTableRecord
  2
ACAD
 70
     0
  0
APPID
  5
205
330
9
100
AcDbSymbolTableRecord
100
AcDbRegAppTableRecord
  2
ACAD_MLEADERVER
 70
     0
  0
ENDTAB
  0
TABLE
  2
DIMSTYLE
  5
A
330
0
100
AcDbSymbolTable
 70
     1
100
AcDbDimStyleTable
  0
DIMSTYLE
105
27
330
A
100
AcDbSymbolTableRecord
100
AcDbDimStyleTableRecord
  2
Standard
 70
     0
178
     0
340
11
  0
ENDTAB
  0
TABLE
  2
BLOCK_RECORD
  5
1
330
0
100
AcDbSymbolTable
 70
     1
  0
BLOCK_RECORD
  5
1F
330
1
100
AcDbSymbolTableRecord
100
AcDbBlockTableRecord
  2
*Model_Space
340
22
  0
BLOCK_RECORD
  5
1B
330
1
100
AcDbSymbolTableRecord
100
AcDbBlockTableRecord
  2
*Paper_Space
340
1E
  0
BLOCK_RECORD
  5
23
330
1
100
AcDbSymbolTableRecord
100
AcDbBlockTableRecord
  2
*Paper_Space0
340
26
  0
ENDTAB
  0
ENDSEC
  0
SECTION
  2
BLOCKS
  0
BLOCK
  5
20
330
1F
100
AcDbEntity
  8
0
100
AcDbBlockBegin
  2
*Model_Space
 70
     0
 10
0.0
 20
0.0
 30
0.0
  3
*Model_Space
  1

  0
ENDBLK
  5
21
330
1F
100
AcDbEntity
  8
0
100
AcDbBlockEnd
  0
BLOCK
  5
1C
330
1B
100
AcDbEntity
 67
     1
  8
0
100
AcDbBlockBegin
  2
*Paper_Space
 70
     0
 10
0.0
 20
0.0
 30
0.0
  3
*Paper_Space
  1

  0
ENDBLK
  5
1D
330
1B
100
AcDbEntity
 67
     1
  8
0
100
AcDbBlockEnd
  0
BLOCK
  5
24
330
23
100
AcDbEntity
  8
0
100
AcDbBlockBegin
  2
*Paper_Space0
 70
     0
 10
0.0
 20
0.0
 30
0.0
  3
*Paper_Space0
  1

  0
ENDBLK
  5
25
330
23
100
AcDbEntity
  8
0
100
AcDbBlockEnd
  0
ENDSEC
  0
SECTION
  2
ENTITIES
  0
LINE
  5
73
330
1F
100
AcDbEntity
  8
2
  6
Continuous
 62
    30
370
    18
100
AcDbLine
 10
360.163895
 20
593.416741
 30
0.0
 11
360.163895
 21
638.416741
 31
0.0
  0
LINE
  5
75
330
1F
100
AcDbEntity
  8
2
  6
Continuous
 62
    30
370
    18
100
AcDbLine
 10
343.163895
 20
638.416741
 30
0.0
 11
343.163895
 21
593.416741
 31
0.0
  0
LINE
  5
76
330
1F
100
AcDbEntity
  8
2
  6
Continuous
 62
    30
370
    18
100
AcDbLine
 10
417.163895
 20
593.416741
 30
0.0
 11
417.163895
 21
638.416741
 31
0.0
  0
LINE
  5
77
330
1F
100
AcDbEntity
  8
2
  6
Continuous
 62
    30
370
    18
100
AcDbLine
 10
400.163895
 20
638.416741
 30
0.0
 11
400.163895
 21
593.416741
 31
0.0
  0
LINE
  5
78
330
1F
100
AcDbEntity
  8
1
  6
Continuous
 62
    30
370
    18
100
AcDbLine
 10
389.163895
 20
583.359515
 30
0.0
 11
388.663895
 21
583.359515
 31
0.0
  0
LINE
  5
7A
330
1F
100
AcDbEntity
  8
1
  6
Continuous
 62
    30
370
    18
100
AcDbLine
 10
371.163895
 20
577.385769
 30
0.0
 11
371.663895
 21
577.385769
 31
0.0
  0
LINE
  5
7B
330
1F
100
AcDbEntity
  8
1
  6
Continuous
 62
    30
370
    18
100
AcDbLine
 10
389.163895
 20
582.181401
 30
0.0
 11
388.663895
 21
582.181401
 31
0.0
  0
LINE
  5
7C
330
1F
100
AcDbEntity
  8
1
  6
Continuous
 62
    30
370
    18
100
AcDbLine
 10
407.588033
 20
544.416741
 30
0.0
 11
408.181922
 21
545.976895
 31
0.0
  0
LINE
  5
7D
330
1F
100
AcDbEntity
  8
1
  6
Continuous
 62
    30
370
    18
100
AcDbLine
 10
352.145868
 20
545.976895
 30
0.0
 11
352.739757
 21
544.416741
 31
0.0
  0
LINE
  5
7E
330
1F
100
AcDbEntity
  8
1
  6
Continuous
 62
    30
370
    18
100
AcDbLine
 10
389.163895
 20
585.054223
 30
0.0
 11
388.663895
 21
585.054223
 31
0.0
  0
LINE
  5
7F
330
1F
100
AcDbEntity
  8
1
  6
Continuous
 62
    30
370
    18
100
AcDbLine
 10
371.663895
 20
585.054223
 30
0.0
 11
371.163895
 21
585.054223
 31
0.0
  0
LINE
  5
80
330
1F
100
AcDbEntity
  8
1
  6
Continuous
 62
    30
370
    18
100
AcDbLine
 10
371.663895
 20
584.350432
 30
0.0
 11
371.163895
 21
584.350432
 31
0.0
  0
LINE
  5
81
330
1F
100
AcDbEntity
  8
1
  6
Continuous
 62
    30
370
    18
100
AcDbLine
 10
371.163895
 20
582.084849
 30
0.0
 11
371.663895
 21
582.084849
 31
0.0
  0
LINE
  5
82
330
1F
100
AcDbEntity
  8
1
  6
Continuous
 62
    30
370
    18
100
AcDbLine
 10
371.663895
 20
583.509849
 30
0.0
 11
371.163895
 21
583.509849
 31
0.0
  0
LINE
  5
83
330
1F
100
AcDbEntity
  8
1
  6
Continuous
 62
   252
370
    18
100
AcDbLine
 10
407.588033
 20
521.750074
 30
0.0
 11
407.588033
 21
544.416741
 31
0.0
  0
LINE
  5
84
330
1F
100
AcDbEntity
  8
1
  6
Continuous
 62
   252
370
    18
100
AcDbLine
 10
352.739757
 20
544.416741
 30
0.0
 11
352.739757
 21
521.750074
 31
0.0
  0
LINE
  5
85
330
1F
100
AcDbEntity
  8
1
  6
Continuous
 62
   252
370
    18
100
AcDbLine
 10
395.163895
 20
476.416741
 30
0.0
 11
395.163895
 21
509.416741
 31
0.0
  0
LINE
  5
86
330
1F
100
AcDbEntity
  8
1
  6
Continuous
 62
   252
370
    18
100
AcDbLine
 10
365.163895
 20
509.416741
 30
0.0
 11
365.163895
 21
476.416741
 31
0.0
  0
LINE
  5
87
330
1F
100
AcDbEntity
  8
1
  6
Continuous
 62
   252
370
    18
100
AcDbLine
 10
394.163895
 20
475.416741
 30
0.0
 11
395.163895
 21
476.416741
 31
0.0
  0
LINE
  5
88
330
1F
100
AcDbEntity
  8
1
  6
Continuous
 62
   252
370
    18
100
AcDbLine
 10
365.163895
 20
476.416741
 30
0.0
 11
366.163895
 21
475.416741
 31
0.0
  0
LINE
  5
89
330
1F
100
AcDbEntity
  8
1
  6
Continuous
 62
   252
370
    18
100
AcDbLine
 10
348.663895
 20
521.750074
 30
0.0
 11
348.663895
 21
511.416741
 31
0.0
  0
LINE
  5
8A
330
1F
100
AcDbEntity
  8
1
  6
Continuous
 62
   252
370
    18
100
AcDbLine
 10
411.663895
 20
511.416741
 30
0.0
 11
411.663895
 21
521.750074
 31
0.0
  0
LINE
  5
8B
330
1F
100
AcDbEntity
  8
2
  6
Continuous
 62
    30
370
    13
100
AcDbLine
 10
417.163895
 20
593.416741
 30
0.0
 11
400.163895
 21
593.416741
 31
0.0
  0
LINE
  5
8C
330
1F
100
AcDbEntity
  8
2
  6
Continuous
 62
    30
370
    13
100
AcDbLine
 10
343.163895
 20
593.416741
 30
0.0
 11
360.163895
 21
593.416741
 31
0.0
  0
LINE
  5
8D
330
1F
100
AcDbEntity
  8
2
  6
Continuous
 62
    30
370
    13
100
AcDbLine
 10
417.163895
 20
638.416741
 30
0.0
 11
400.163895
 21
638.416741
 31
0.0
  0
LINE
  5
8E
330
1F
100
AcDbEntity
  8
2
  6
Continuous
 62
    30
370
    13
100
AcDbLine
 10
343.163895
 20
638.416741
 30
0.0
 11
360.163895
 21
638.416741
 31
0.0
  0
LINE
  5
8F
330
1F
100
AcDbEntity
  8
1
  6
Continuous
 62
    30
370
    18
100
AcDbLine
 10
363.163895
 20
552.416741
 30
0.0
 11
356.585116
 21
552.416741
 31
0.0
  0
LINE
  5
90
330
1F
100
AcDbEntity
  8
1
  6
Continuous
 62
    30
370
    18
100
AcDbLine
 10
397.163895
 20
552.416741
 30
0.0
 11
403.742674
 21
552.416741
 31
0.0
  0
LINE
  5
91
330
1F
100
AcDbEntity
  8
1
  6
Continuous
 62
    30
370
    13
100
AcDbLine
 10
400.364536
 20
545.976895
 30
0.0
 11
408.181922
 21
545.976895
 31
0.0
  0
LINE
  5
92
330
1F
100
AcDbEntity
  8
1
  6
Continuous
 62
    30
370
    13
100
AcDbLine
 10
359.963254
 20
545.976895
 30
0.0
 11
352.145868
 21
545.976895
 31
0.0
  0
LINE
  5
93
330
1F
100
AcDbEntity
  8
1
  6
Continuous
 62
    30
370
    13
100
AcDbLine
 10
371.663895
 20
560.916741
 30
0.0
 11
375.748007
 21
560.916741
 31
0.0
  0
LINE
  5
94
330
1F
100
AcDbEntity
  8
1
  6
Continuous
 62
    30
370
    13
100
AcDbLine
 10
388.663895
 20
560.916741
 30
0.0
 11
384.579783
 21
560.916741
 31
0.0
  0
LINE
  5
95
330
1F
100
AcDbEntity
  8
1
  6
Continuous
 62
    30
370
    18
100
AcDbLine
 10
371.163895
 20
576.991946
 30
0.0
 11
371.663895
 21
576.991946
 31
0.0
  0
LINE
  5
96
330
1F
100
AcDbEntity
  8
1
  6
Continuous
 62
    30
370
    18
100
AcDbLine
 10
371.163895
 20
577.236827
 30
0.0
 11
371.663895
 21
577.236827
 31
0.0
  0
LINE
  5
97
330
1F
100
AcDbEntity
  8
1
  6
Continuous
 62
    30
370
    18
100
AcDbLine
 10
389.163895
 20
585.054223
 30
0.0
 11
389.163895
 21
583.782618
 31
0.0
  0
LINE
  5
98
330
1F
100
AcDbEntity
  8
1
  6
Continuous
 62
    30
370
    18
100
AcDbLine
 10
389.163895
 20
583.772376
 30
0.0
 11
388.663895
 21
583.772376
 31
0.0
  0
LINE
  5
99
330
1F
100
AcDbEntity
  8
1
  6
Continuous
 62
    30
370
    18
100
AcDbLine
 10
389.163895
 20
583.772055
 30
0.0
 11
389.163895
 21
583.771228
 31
0.0
  0
LINE
  5
9A
330
1F
100
AcDbEntity
  8
1
  6
Continuous
 62
    30
370
    18
100
AcDbLine
 10
389.163895
 20
583.772055
 30
0.0
 11
388.663895
 21
583.772055
 31
0.0
  0
LINE
  5
9B
330
1F
100
AcDbEntity
  8
1
  6
Continuous
 62
    30
370
    18
100
AcDbLine
 10
389.163895
 20
583.771228
 30
0.0
 11
388.663895
 21
583.771228
 31
0.0
  0
LINE
  5
9C
330
1F
100
AcDbEntity
  8
1
  6
Continuous
 62
    30
370
    18
100
AcDbLine
 10
389.163895
 20
583.77089
 30
0.0
 11
389.163895
 21
583.770078
 31
0.0
  0
LINE
  5
9D
330
1F
100
AcDbEntity
  8
1
  6
Continuous
 62
    30
370
    18
100
AcDbLine
 10
389.163895
 20
583.77089
 30
0.0
 11
388.663895
 21
583.77089
 31
0.0
  0
LINE
  5
9E
330
1F
100
AcDbEntity
  8
1
  6
Continuous
 62
    30
370
    18
100
AcDbLine
 10
389.163895
 20
583.770058
 30
0.0
 11
388.663895
 21
583.770058
 31
0.0
  0
LINE
  5
9F
330
1F
100
AcDbEntity
  8
1
  6
Continuous
 62
    30
370
    18
100
AcDbLine
 10
389.163895
 20
583.769718
 30
0.0
 11
388.663895
 21
583.769718
 31
0.0
  0
LINE
  5
A0
330
1F
100
AcDbEntity
  8
1
  6
Continuous
 62
    30
370
    18
100
AcDbLine
 10
371.163895
 20
577.388938
 30
0.0
 11
371.663895
 21
577.388938
 31
0.0
  0
LINE
  5
A1
330
1F
100
AcDbEntity
  8
1
  6
Continuous
 62
    30
370
    18
100
AcDbLine
 10
371.163895
 20
585.054223
 30
0.0
 11
371.163895
 21
584.341723
 31
0.0
  0
LINE
  5
A2
330
1F
100
AcDbEntity
  8
1
  6
Continuous
 62
    30
370
    13
100
AcDbLine
 10
389.163895
 20
582.039206
 30
0.0
 11
388.663895
 21
582.039206
 31
0.0
  0
LINE
  5
A3
330
1F
100
AcDbEntity
  8
1
  6
Continuous
 62
    30
370
    18
100
AcDbLine
 10
371.163895
 20
577.683263
 30
0.0
 11
371.663895
 21
577.683263
 31
0.0
  0
LINE
  5
A4
330
1F
100
AcDbEntity
  8
1
  6
Continuous
 62
    30
370
    18
100
AcDbLine
 10
371.163895
 20
581.555333
 30
0.0
 11
371.663895
 21
581.555333
 31
0.0
  0
LINE
  5
A5
330
1F
100
AcDbEntity
  8
1
  6
Continuous
 62
    30
370
    18
100
AcDbLine
 10
371.163895
 20
581.329881
 30
0.0
 11
371.663895
 21
581.329881
 31
0.0
  0
LINE
  5
A6
330
1F
100
AcDbEntity
  8
1
  6
Continuous
 62
    30
370
    18
100
AcDbLine
 10
389.163895
 20
576.991946
 30
0.0
 11
388.663895
 21
576.991946
 31
0.0
  0
LINE
  5
A7
330
1F
100
AcDbEntity
  8
1
  6
Continuous
 62
    30
370
    18
100
AcDbLine
 10
389.163895
 20
581.327594
 30
0.0
 11
388.663895
 21
581.327594
 31
0.0
  0
LINE
  5
A8
330
1F
100
AcDbEntity
  8
1
  6
Continuous
 62
    30
370
    18
100
AcDbLine
 10
389.163895
 20
581.550538
 30
0.0
 11
388.663895
 21
581.550538
 31
0.0
  0
LINE
  5
A9
330
1F
100
AcDbEntity
  8
1
  6
Continuous
 62
    30
370
    18
100
AcDbLine
 10
371.163895
 20
584.350432
 30
0.0
 11
371.163895
 21
583.637932
 31
0.0
  0
LINE
  5
AA
330
1F
100
AcDbEntity
  8
1
  6
Continuous
 62
    30
370
    18
100
AcDbLine
 10
371.163895
 20
583.637932
 30
0.0
 11
371.163895
 21
583.509786
 31
0.0
  0
LINE
  5
AB
330
1F
100
AcDbEntity
  8
1
  6
Continuous
 62
    30
370
    18
100
AcDbLine
 10
371.163895
 20
583.509849
 30
0.0
 11
371.163895
 21
582.797349
 31
0.0
  0
LINE
  5
AC
330
1F
100
AcDbEntity
  8
1
  6
Continuous
 62
    30
370
    18
100
AcDbLine
 10
371.163895
 20
582.797349
 30
0.0
 11
371.163895
 21
582.084849
 31
0.0
  0
LINE
  5
AD
330
1F
100
AcDbEntity
  8
1
  6
Continuous
 62
    30
370
    18
100
AcDbLine
 10
371.663895
 20
587.402586
 30
0.0
 11
371.663895
 21
560.916741
 31
0.0
  0
LINE
  5
AE
330
1F
100
AcDbEntity
  8
1
  6
Continuous
 62
    30
370
    13
100
AcDbLine
 10
375.748007
 20
560.916741
 30
0.0
 11
375.748007
 21
592.10568
 31
0.0
  0
LINE
  5
AF
330
1F
100
AcDbEntity
  8
1
  6
Continuous
 62
    30
370
    18
100
AcDbLine
 10
388.663895
 20
587.402586
 30
0.0
 11
388.663895
 21
560.916741
 31
0.0
  0
LINE
  5
B0
330
1F
100
AcDbEntity
  8
1
  6
Continuous
 62
    30
370
    13
100
AcDbLine
 10
384.579783
 20
560.916741
 30
0.0
 11
384.579783
 21
592.10568
 31
0.0
  0
LINE
  5
B1
330
1F
100
AcDbEntity
  8
1
  6
Continuous
 62
    30
370
    18
100
AcDbLine
 10
407.588033
 20
544.416741
 30
0.0
 11
352.739757
 21
544.416741
 31
0.0
  0
LINE
  5
B2
330
1F
100
AcDbEntity
  8
1
  6
Continuous
 62
    30
370
    13
100
AcDbLine
 10
389.326008
 20
549.710394
 30
0.0
 11
371.001781
 21
549.710394
 31
0.0
  0
LINE
  5
B3
330
1F
100
AcDbEntity
  8
1
  6
Continuous
 62
   252
370
    18
100
AcDbLine
 10
407.451092
 20
544.416741
 30
0.0
 11
407.588033
 21
544.416741
 31
0.0
  0
LINE
  5
B4
330
1F
100
AcDbEntity
  8
1
  6
Continuous
 62
   252
370
    18
100
AcDbLine
 10
352.876698
 20
544.416741
 30
0.0
 11
352.739757
 21
544.416741
 31
0.0
  0
LINE
  5
B5
330
1F
100
AcDbEntity
  8
1
  6
Continuous
 62
   252
370
    18
100
AcDbLine
 10
366.163895
 20
475.416741
 30
0.0
 11
380.163895
 21
475.416741
 31
0.0
  0
LINE
  5
B6
330
1F
100
AcDbEntity
  8
1
  6
Continuous
 62
   252
370
    18
100
AcDbLine
 10
380.163895
 20
475.416741
 30
0.0
 11
394.163895
 21
475.416741
 31
0.0
  0
LINE
  5
B7
330
1F
100
AcDbEntity
  8
1
  6
Continuous
 62
   252
370
    18
100
AcDbLine
 10
395.163895
 20
476.416741
 30
0.0
 11
380.163895
 21
476.416741
 31
0.0
  0
LINE
  5
B8
330
1F
100
AcDbEntity
  8
1
  6
Continuous
 62
   252
370
    18
100
AcDbLine
 10
380.163895
 20
476.416741
 30
0.0
 11
365.163895
 21
476.416741
 31
0.0
  0
LINE
  5
B9
330
1F
100
AcDbEntity
  8
1
  6
Continuous
 62
   252
370
    13
100
AcDbLine
 10
395.163895
 20
509.416741
 30
0.0
 11
365.163895
 21
509.416741
 31
0.0
  0
LINE
  5
BA
330
1F
100
AcDbEntity
  8
1
  6
Continuous
 62
   252
370
    18
100
AcDbLine
 10
352.876698
 20
521.750074
 30
0.0
 11
352.876698
 21
544.416741
 31
0.0
  0
LINE
  5
BB
330
1F
100
AcDbEntity
  8
1
  6
Continuous
 62
   252
370
    18
100
AcDbLine
 10
407.451092
 20
544.416741
 30
0.0
 11
407.451092
 21
521.750074
 31
0.0
  0
LINE
  5
BC
330
1F
100
AcDbEntity
  8
1
  6
Continuous
 62
   252
370
    18
100
AcDbLine
 10
396.177968
 20
544.416741
 30
0.0
 11
391.437019
 21
544.416741
 31
0.0
  0
LINE
  5
BD
330
1F
100
AcDbEntity
  8
1
  6
Continuous
 62
   252
370
    18
100
AcDbLine
 10
396.177968
 20
521.750074
 30
0.0
 11
396.177968
 21
544.416741
 31
0.0
  0
LINE
  5
BE
330
1F
100
AcDbEntity
  8
1
  6
Continuous
 62
   252
370
    18
100
AcDbLine
 10
391.437019
 20
544.416741
 30
0.0
 11
391.437019
 21
521.750074
 31
0.0
  0
LINE
  5
BF
330
1F
100
AcDbEntity
  8
1
  6
Continuous
 62
   252
370
    18
100
AcDbLine
 10
368.89077
 20
521.750074
 30
0.0
 11
368.89077
 21
544.416741
 31
0.0
  0
LINE
  5
C0
330
1F
100
AcDbEntity
  8
1
  6
Continuous
 62
   252
370
    18
100
AcDbLine
 10
368.89077
 20
544.416741
 30
0.0
 11
364.149822
 21
544.416741
 31
0.0
  0
LINE
  5
C1
330
1F
100
AcDbEntity
  8
1
  6
Continuous
 62
   252
370
    18
100
AcDbLine
 10
364.149822
 20
544.416741
 30
0.0
 11
364.149822
 21
521.750074
 31
0.0
  0
LINE
  5
C2
330
1F
100
AcDbEntity
  8
1
  6
Continuous
 62
   252
370
    18
100
AcDbLine
 10
411.663895
 20
521.750074
 30
0.0
 11
348.663895
 21
521.750074
 31
0.0
  0
LINE
  5
C3
330
1F
100
AcDbEntity
  8
1
  6
Continuous
 62
   252
370
    13
100
AcDbLine
 10
411.663895
 20
511.416741
 30
0.0
 11
348.663895
 21
511.416741
 31
0.0
  0
LINE
  5
C4
330
1F
100
AcDbEntity
  8
1
  6
Continuous
 62
   252
370
    18
100
AcDbLine
 10
410.663895
 20
510.416741
 30
0.0
 11
349.663895
 21
510.416741
 31
0.0
  0
LINE
  5
C5
330
1F
100
AcDbEntity
  8
2
  6
Continuous
 62
    30
370
    18
100
AcDbLine
 10
820.047911
 20
659.416741
 30
0.0
 11
820.047911
 21
687.916741
 31
0.0
  0
LINE
  5
C6
330
1F
100
AcDbEntity
  8
2
  6
Continuous
 62
    30
370
    18
100
AcDbLine
 10
803.047911
 20
687.916741
 30
0.0
 11
803.047911
 21
659.416741
 31
0.0
  0
LINE
  5
C7
330
1F
100
AcDbEntity
  8
2
  6
Continuous
 62
    30
370
    18
100
AcDbLine
 10
803.047911
 20
614.416741
 30
0.0
 11
803.047911
 21
585.916741
 31
0.0
  0
LINE
  5
C8
330
1F
100
AcDbEntity
  8
2
  6
Continuous
 62
    30
370
    18
100
AcDbLine
 10
820.047911
 20
585.916741
 30
0.0
 11
820.047911
 21
614.416741
 31
0.0
  0
LINE
  5
C9
330
1F
100
AcDbEntity
  8
2
  6
Continuous
 62
    30
370
    18
100
AcDbLine
 10
820.047911
 20
614.416741
 30
0.0
 11
820.047911
 21
659.416741
 31
0.0
  0
LINE
  5
CA
330
1F
100
AcDbEntity
  8
2
  6
Continuous
 62
    30
370
    18
100
AcDbLine
 10
803.047911
 20
659.416741
 30
0.0
 11
803.047911
 21
614.416741
 31
0.0
  0
LINE
  5
CB
330
1F
100
AcDbEntity
  8
1
  6
Continuous
 62
    30
370
    18
100
AcDbLine
 10
782.108689
 20
570.710394
 30
0.0
 11
784.123773
 21
565.416741
 31
0.0
  0
LINE
  5
CC
330
1F
100
AcDbEntity
  8
1
  6
Continuous
 62
    30
370
    18
100
AcDbLine
 10
838.972048
 20
565.416741
 30
0.0
 11
840.987133
 21
570.710394
 31
0.0
  0
LINE
  5
CD
330
1F
100
AcDbEntity
  8
1
  6
Continuous
 62
   252
370
    18
100
AcDbLine
 10
826.547911
 20
497.416741
 30
0.0
 11
826.547911
 21
530.416741
 31
0.0
  0
LINE
  5
CE
330
1F
100
AcDbEntity
  8
1
  6
Continuous
 62
   252
370
    18
100
AcDbLine
 10
796.547911
 20
530.416741
 30
0.0
 11
796.547911
 21
497.416741
 31
0.0
  0
LINE
  5
CF
330
1F
100
AcDbEntity
  8
1
  6
Continuous
 62
   252
370
    18
100
AcDbLine
 10
825.547911
 20
496.416741
 30
0.0
 11
826.547911
 21
497.416741
 31
0.0
  0
LINE
  5
D0
330
1F
100
AcDbEntity
  8
1
  6
Continuous
 62
   252
370
    18
100
AcDbLine
 10
796.547911
 20
497.416741
 30
0.0
 11
797.547911
 21
496.416741
 31
0.0
  0
LINE
  5
D1
330
1F
100
AcDbEntity
  8
1
  6
Continuous
 62
   252
370
    18
100
AcDbLine
 10
780.047911
 20
542.750074
 30
0.0
 11
780.047911
 21
532.416741
 31
0.0
  0
LINE
  5
D2
330
1F
100
AcDbEntity
  8
1
  6
Continuous
 62
   252
370
    18
100
AcDbLine
 10
843.047911
 20
532.416741
 30
0.0
 11
843.047911
 21
542.750074
 31
0.0
  0
LINE
  5
D3
330
1F
100
AcDbEntity
  8
2
  6
Continuous
 62
    30
370
    13
100
AcDbLine
 10
820.047911
 20
614.416741
 30
0.0
 11
811.547911
 21
614.416741
 31
0.0
  0
LINE
  5
D4
330
1F
100
AcDbEntity
  8
2
  6
Continuous
 62
    30
370
    13
100
AcDbLine
 10
811.547911
 20
614.416741
 30
0.0
 11
803.047911
 21
614.416741
 31
0.0
  0
LINE
  5
D5
330
1F
100
AcDbEntity
  8
2
  6
Continuous
 62
    30
370
    13
100
AcDbLine
 10
820.047911
 20
659.416741
 30
0.0
 11
811.547911
 21
659.416741
 31
0.0
  0
LINE
  5
D6
330
1F
100
AcDbEntity
  8
2
  6
Continuous
 62
    30
370
    13
100
AcDbLine
 10
811.547911
 20
659.416741
 30
0.0
 11
803.047911
 21
659.416741
 31
0.0
  0
LINE
  5
D7
330
1F
100
AcDbEntity
  8
1
  6
Continuous
 62
    30
370
    13
100
AcDbLine
 10
838.033756
 20
581.916741
 30
0.0
 11
842.73685
 21
581.916741
 31
0.0
  0
LINE
  5
D8
330
1F
100
AcDbEntity
  8
1
  6
Continuous
 62
    30
370
    13
100
AcDbLine
 10
785.062065
 20
581.916741
 30
0.0
 11
780.358971
 21
581.916741
 31
0.0
  0
LINE
  5
D9
330
1F
100
AcDbEntity
  8
1
  6
Continuous
 62
    30
370
    18
100
AcDbLine
 10
795.209036
 20
573.416741
 30
0.0
 11
827.886785
 21
573.416741
 31
0.0
  0
LINE
  5
DA
330
1F
100
AcDbEntity
  8
1
  6
Continuous
 62
    30
370
    13
100
AcDbLine
 10
830.962954
 20
566.976895
 30
0.0
 11
792.132867
 21
566.976895
 31
0.0
  0
LINE
  5
DB
330
1F
100
AcDbEntity
  8
1
  6
Continuous
 62
    30
370
    13
100
AcDbLine
 10
785.062065
 20
581.916741
 30
0.0
 11
796.429627
 21
581.916741
 31
0.0
  0
LINE
  5
DC
330
1F
100
AcDbEntity
  8
1
  6
Continuous
 62
    30
370
    13
100
AcDbLine
 10
826.666194
 20
581.916741
 30
0.0
 11
838.033756
 21
581.916741
 31
0.0
  0
LINE
  5
DD
330
1F
100
AcDbEntity
  8
1
  6
Continuous
 62
    30
370
    13
100
AcDbLine
 10
801.138601
 20
582.539691
 30
0.0
 11
796.429627
 21
581.916741
 31
0.0
  0
LINE
  5
DE
330
1F
100
AcDbEntity
  8
1
  6
Continuous
 62
    30
370
    13
100
AcDbLine
 10
821.957221
 20
582.539691
 30
0.0
 11
826.666194
 21
581.916741
 31
0.0
  0
LINE
  5
DF
330
1F
100
AcDbEntity
  8
1
  6
Continuous
 62
    30
370
    18
100
AcDbLine
 10
784.123773
 20
565.416741
 30
0.0
 11
838.972048
 21
565.416741
 31
0.0
  0
LINE
  5
E0
330
1F
100
AcDbEntity
  8
1
  6
Continuous
 62
    30
370
    13
100
AcDbLine
 10
782.108689
 20
570.710394
 30
0.0
 11
783.570715
 21
570.710394
 31
0.0
  0
LINE
  5
E1
330
1F
100
AcDbEntity
  8
1
  6
Continuous
 62
    30
370
    13
100
AcDbLine
 10
840.987133
 20
570.710394
 30
0.0
 11
839.525106
 21
570.710394
 31
0.0
  0
LINE
  5
E2
330
1F
100
AcDbEntity
  8
1
  6
Continuous
 62
   252
370
    18
100
AcDbLine
 10
825.547911
 20
496.416741
 30
0.0
 11
797.547911
 21
496.416741
 31
0.0
  0
LINE
  5
E3
330
1F
100
AcDbEntity
  8
1
  6
Continuous
 62
   252
370
    18
100
AcDbLine
 10
826.547911
 20
497.416741
 30
0.0
 11
796.547911
 21
497.416741
 31
0.0
  0
LINE
  5
E4
330
1F
100
AcDbEntity
  8
1
  6
Continuous
 62
   252
370
    13
100
AcDbLine
 10
826.547911
 20
530.416741
 30
0.0
 11
796.547911
 21
530.416741
 31
0.0
  0
LINE
  5
E5
330
1F
100
AcDbEntity
  8
1
  6
Continuous
 62
   252
370
    18
100
AcDbLine
 10
789.285099
 20
565.416741
 30
0.0
 11
786.547911
 21
565.416741
 31
0.0
  0
LINE
  5
E6
330
1F
100
AcDbEntity
  8
1
  6
Continuous
 62
   252
370
    18
100
AcDbLine
 10
786.547911
 20
565.416741
 30
0.0
 11
786.547911
 21
542.750074
 31
0.0
  0
LINE
  5
E7
330
1F
100
AcDbEntity
  8
1
  6
Continuous
 62
   252
370
    18
100
AcDbLine
 10
836.547911
 20
565.416741
 30
0.0
 11
833.810723
 21
565.416741
 31
0.0
  0
LINE
  5
E8
330
1F
100
AcDbEntity
  8
1
  6
Continuous
 62
   252
370
    18
100
AcDbLine
 10
836.547911
 20
542.750074
 30
0.0
 11
836.547911
 21
565.416741
 31
0.0
  0
LINE
  5
E9
330
1F
100
AcDbEntity
  8
1
  6
Continuous
 62
   252
370
    18
100
AcDbLine
 10
833.810723
 20
565.416741
 30
0.0
 11
833.810723
 21
542.750074
 31
0.0
  0
LINE
  5
EA
330
1F
100
AcDbEntity
  8
1
  6
Continuous
 62
   252
370
    18
100
AcDbLine
 10
789.285099
 20
542.750074
 30
0.0
 11
789.285099
 21
565.416741
 31
0.0
  0
LINE
  5
EB
330
1F
100
AcDbEntity
  8
1
  6
Continuous
 62
   252
370
    18
100
AcDbLine
 10
814.285099
 20
542.750074
 30
0.0
 11
814.285099
 21
565.416741
 31
0.0
  0
LINE
  5
EC
330
1F
100
AcDbEntity
  8
1
  6
Continuous
 62
   252
370
    18
100
AcDbLine
 10
814.285099
 20
565.416741
 30
0.0
 11
808.810723
 21
565.416741
 31
0.0
  0
LINE
  5
ED
330
1F
100
AcDbEntity
  8
1
  6
Continuous
 62
   252
370
    18
100
AcDbLine
 10
808.810723
 20
565.416741
 30
0.0
 11
808.810723
 21
542.750074
 31
0.0
  0
LINE
  5
EE
330
1F
100
AcDbEntity
  8
1
  6
Continuous
 62
   252
370
    18
100
AcDbLine
 10
843.047911
 20
542.750074
 30
0.0
 11
780.047911
 21
542.750074
 31
0.0
  0
LINE
  5
EF
330
1F
100
AcDbEntity
  8
1
  6
Continuous
 62
   252
370
    13
100
AcDbLine
 10
780.047911
 20
532.416741
 30
0.0
 11
843.047911
 21
532.416741
 31
0.0
  0
LINE
  5
F0
330
1F
100
AcDbEntity
  8
1
  6
Continuous
 62
   252
370
    18
100
AcDbLine
 10
842.047911
 20
531.416741
 30
0.0
 11
781.047911
 21
531.416741
 31
0.0
  0
LINE
  5
F1
330
1F
100
AcDbEntity
  8
2
  6
Continuous
 62
    30
370
    18
100
AcDbLine
 10
351.663895
 20
139.340966
 30
0.0
 11
408.663895
 21
139.340966
 31
0.0
  0
LINE
  5
F2
330
1F
100
AcDbEntity
  8
2
  6
Continuous
 62
    30
370
    18
100
AcDbLine
 10
408.663895
 20
156.340966
 30
0.0
 11
351.663895
 21
156.340966
 31
0.0
  0
LINE
  5
F3
330
1F
100
AcDbEntity
  8
1
  6
Continuous
 62
    30
370
    18
100
AcDbLine
 10
389.163895
 20
158.065155
 30
0.0
 11
388.663895
 21
158.065155
 31
0.0
  0
LINE
  5
F4
330
1F
100
AcDbEntity
  8
1
  6
Continuous
 62
    30
370
    18
100
AcDbLine
 10
388.663895
 20
156.640155
 30
0.0
 11
389.163895
 21
156.640155
 31
0.0
  0
LINE
  5
F5
330
1F
100
AcDbEntity
  8
1
  6
Continuous
 62
    30
370
    18
100
AcDbLine
 10
371.163895
 20
137.616777
 30
0.0
 11
371.663895
 21
137.616777
 31
0.0
  0
LINE
  5
F6
330
1F
100
AcDbEntity
  8
1
  6
Continuous
 62
    30
370
    18
100
AcDbLine
 10
371.663895
 20
139.041777
 30
0.0
 11
371.163895
 21
139.041777
 31
0.0
  0
LINE
  5
F7
330
1F
100
AcDbEntity
  8
1
  6
Continuous
 62
    30
370
    18
100
AcDbLine
 10
389.163895
 20
156.351552
 30
0.0
 11
388.663895
 21
156.351552
 31
0.0
  0
LINE
  5
F8
330
1F
100
AcDbEntity
  8
1
  6
Continuous
 62
    30
370
    18
100
AcDbLine
 10
371.163895
 20
139.33038
 30
0.0
 11
371.663895
 21
139.33038
 31
0.0
  0
LINE
  5
F9
330
1F
100
AcDbEntity
  8
1
  6
Continuous
 62
    30
370
    18
100
AcDbLine
 10
389.163895
 20
159.715966
 30
0.0
 11
388.663895
 21
159.715966
 31
0.0
  0
LINE
  5
FA
330
1F
100
AcDbEntity
  8
1
  6
Continuous
 62
    30
370
    18
100
AcDbLine
 10
388.663895
 20
158.290966
 30
0.0
 11
389.163895
 21
158.290966
 31
0.0
  0
LINE
  5
FB
330
1F
100
AcDbEntity
  8
1
  6
Continuous
 62
    30
370
    18
100
AcDbLine
 10
371.163895
 20
135.965966
 30
0.0
 11
371.663895
 21
135.965966
 31
0.0
  0
LINE
  5
FC
330
1F
100
AcDbEntity
  8
1
  6
Continuous
 62
    30
370
    18
100
AcDbLine
 10
371.663895
 20
137.390966
 30
0.0
 11
371.163895
 21
137.390966
 31
0.0
  0
LINE
  5
FD
330
1F
100
AcDbEntity
  8
1
  6
Continuous
 62
    30
370
    13
100
AcDbLine
 10
400.588584
 20
128.210587
 30
0.0
 11
397.163895
 21
131.502092
 31
0.0
  0
LINE
  5
FE
330
1F
100
AcDbEntity
  8
1
  6
Continuous
 62
    30
370
    13
100
AcDbLine
 10
359.739205
 20
167.471345
 30
0.0
 11
363.163895
 21
164.17984
 31
0.0
  0
LINE
  5
FF
330
1F
100
AcDbEntity
  8
1
  6
Continuous
 62
    30
370
    13
100
AcDbLine
 10
359.739205
 20
128.210587
 30
0.0
 11
363.163895
 21
131.502092
 31
0.0
  0
LINE
  5
100
330
1F
100
AcDbEntity
  8
1
  6
Continuous
 62
    30
370
    13
100
AcDbLine
 10
400.588584
 20
167.471345
 30
0.0
 11
397.163895
 21
164.17984
 31
0.0
  0
LINE
  5
101
330
1F
100
AcDbEntity
  8
1
  6
Continuous
 62
    30
370
    13
100
AcDbLine
 10
363.163895
 20
131.502092
 30
0.0
 11
363.163895
 21
139.341177
 31
0.0
  0
LINE
  5
102
330
1F
100
AcDbEntity
  8
1
  6
Continuous
 62
    30
370
    13
100
AcDbLine
 10
363.163895
 20
156.340755
 30
0.0
 11
363.163895
 21
164.17984
 31
0.0
  0
LINE
  5
103
330
1F
100
AcDbEntity
  8
1
  6
Continuous
 62
    30
370
    18
100
AcDbLine
 10
389.163895
 20
137.94371
 30
0.0
 11
388.663895
 21
137.94371
 31
0.0
  0
LINE
  5
104
330
1F
100
AcDbEntity
  8
1
  6
Continuous
 62
    30
370
    18
100
AcDbLine
 10
371.163895
 20
157.063041
 30
0.0
 11
371.663895
 21
157.063041
 31
0.0
  0
LINE
  5
105
330
1F
100
AcDbEntity
  8
1
  6
Continuous
 62
    30
370
    18
100
AcDbLine
 10
371.163895
 20
157.738223
 30
0.0
 11
371.663895
 21
157.738223
 31
0.0
  0
LINE
  5
106
330
1F
100
AcDbEntity
  8
1
  6
Continuous
 62
    30
370
    18
100
AcDbLine
 10
371.163895
 20
157.246049
 30
0.0
 11
371.663895
 21
157.246049
 31
0.0
  0
LINE
  5
107
330
1F
100
AcDbEntity
  8
1
  6
Continuous
 62
    30
370
    18
100
AcDbLine
 10
389.163895
 20
138.435883
 30
0.0
 11
388.663895
 21
138.435883
 31
0.0
  0
LINE
  5
108
330
1F
100
AcDbEntity
  8
1
  6
Continuous
 62
    30
370
    18
100
AcDbLine
 10
389.163895
 20
138.618891
 30
0.0
 11
388.663895
 21
138.618891
 31
0.0
  0
LINE
  5
109
330
1F
100
AcDbEntity
  8
1
  6
Continuous
 62
    30
370
    18
100
AcDbLine
 10
389.163895
 20
138.63128
 30
0.0
 11
388.663895
 21
138.63128
 31
0.0
  0
LINE
  5
10A
330
1F
100
AcDbEntity
  8
1
  6
Continuous
 62
    30
370
    18
100
AcDbLine
 10
371.163895
 20
157.050652
 30
0.0
 11
371.663895
 21
157.050652
 31
0.0
  0
LINE
  5
10B
330
1F
100
AcDbEntity
  8
1
  6
Continuous
 62
    30
370
    13
100
AcDbLine
 10
371.163895
 20
156.355734
 30
0.0
 11
371.663895
 21
156.355734
 31
0.0
  0
LINE
  5
10C
330
1F
100
AcDbEntity
  8
1
  6
Continuous
 62
    30
370
    13
100
AcDbLine
 10
389.163895
 20
139.326198
 30
0.0
 11
388.663895
 21
139.326198
 31
0.0
  0
LINE
  5
10D
330
1F
100
AcDbEntity
  8
1
  6
Continuous
 62
    30
370
    18
100
AcDbLine
 10
389.163895
 20
159.715966
 30
0.0
 11
389.163895
 21
158.290966
 31
0.0
  0
LINE
  5
10E
330
1F
100
AcDbEntity
  8
1
  6
Continuous
 62
    30
370
    18
100
AcDbLine
 10
371.163895
 20
135.965966
 30
0.0
 11
371.163895
 21
137.390966
 31
0.0
  0
LINE
  5
10F
330
1F
100
AcDbEntity
  8
1
  6
Continuous
 62
    30
370
    18
100
AcDbLine
 10
389.163895
 20
158.065155
 30
0.0
 11
389.163895
 21
156.640155
 31
0.0
  0
LINE
  5
110
330
1F
100
AcDbEntity
  8
1
  6
Continuous
 62
    30
370
    18
100
AcDbLine
 10
371.163895
 20
137.616777
 30
0.0
 11
371.163895
 21
139.041777
 31
0.0
  0
LINE
  5
111
330
1F
100
AcDbEntity
  8
1
  6
Continuous
 62
    30
370
    18
100
AcDbLine
 10
371.163895
 20
139.33038
 30
0.0
 11
371.163895
 21
139.340978
 31
0.0
  0
LINE
  5
112
330
1F
100
AcDbEntity
  8
1
  6
Continuous
 62
    30
370
    18
100
AcDbLine
 10
389.163895
 20
156.351552
 30
0.0
 11
389.163895
 21
156.340955
 31
0.0
  0
LINE
  5
113
330
1F
100
AcDbEntity
  8
1
  6
Continuous
 62
    30
370
    18
100
AcDbLine
 10
371.663895
 20
121.355121
 30
0.0
 11
371.663895
 21
139.330653
 31
0.0
  0
LINE
  5
114
330
1F
100
AcDbEntity
  8
1
  6
Continuous
 62
    30
370
    18
100
AcDbLine
 10
371.663895
 20
156.354972
 30
0.0
 11
371.663895
 21
174.326811
 31
0.0
  0
LINE
  5
115
330
1F
100
AcDbEntity
  8
1
  6
Continuous
 62
    30
370
    13
100
AcDbLine
 10
375.748007
 20
179.029905
 30
0.0
 11
375.748007
 21
156.340791
 31
0.0
  0
LINE
  5
116
330
1F
100
AcDbEntity
  8
1
  6
Continuous
 62
    30
370
    13
100
AcDbLine
 10
375.748007
 20
139.341141
 30
0.0
 11
375.748007
 21
116.652027
 31
0.0
  0
LINE
  5
117
330
1F
100
AcDbEntity
  8
1
  6
Continuous
 62
    30
370
    13
100
AcDbLine
 10
397.163895
 20
139.341177
 30
0.0
 11
397.163895
 21
131.502092
 31
0.0
  0
LINE
  5
118
330
1F
100
AcDbEntity
  8
1
  6
Continuous
 62
    30
370
    13
100
AcDbLine
 10
397.163895
 20
164.17984
 30
0.0
 11
397.163895
 21
156.340755
 31
0.0
  0
LINE
  5
119
330
1F
100
AcDbEntity
  8
1
  6
Continuous
 62
    30
370
    18
100
AcDbLine
 10
388.663895
 20
174.326811
 30
0.0
 11
388.663895
 21
156.351279
 31
0.0
  0
LINE
  5
11A
330
1F
100
AcDbEntity
  8
1
  6
Continuous
 62
    30
370
    18
100
AcDbLine
 10
388.663895
 20
139.32696
 30
0.0
 11
388.663895
 21
121.355121
 31
0.0
  0
LINE
  5
11B
330
1F
100
AcDbEntity
  8
1
  6
Continuous
 62
    30
370
    13
100
AcDbLine
 10
384.579783
 20
116.652027
 30
0.0
 11
384.579783
 21
139.341141
 31
0.0
  0
LINE
  5
11C
330
1F
100
AcDbEntity
  8
1
  6
Continuous
 62
    30
370
    13
100
AcDbLine
 10
384.579783
 20
156.340791
 30
0.0
 11
384.579783
 21
179.029905
 31
0.0
  0
ARC
  5
11D
330
1F
100
AcDbEntity
  8
2
  6
Continuous
 62
    30
370
    18
100
AcDbCircle
 10
380.163895
 20
593.416741
 30
0.0
 40
37.00000000000001
100
AcDbArc
 50
180.0
 51
255.628125
  0
ARC
  5
11E
330
1F
100
AcDbEntity
  8
2
  6
Continuous
 62
    30
370
    18
100
AcDbCircle
 10
380.163895
 20
593.416741
 30
0.0
 40
37.00000000000001
100
AcDbArc
 50
284.374687
 51
0.0
  0
ARC
  5
11F
330
1F
100
AcDbEntity
  8
2
  6
Continuous
 62
    30
370
    18
100
AcDbCircle
 10
380.163895
 20
638.416741
 30
0.0
 40
36.99999999999999
100
AcDbArc
 50
0.0
 51
180.0
  0
ARC
  5
120
330
1F
100
AcDbEntity
  8
2
  6
Continuous
 62
    30
370
    18
100
AcDbCircle
 10
380.163895
 20
638.416741
 30
0.0
 40
19.99999999999998
100
AcDbArc
 50
0.0
 51
180.0
  0
ARC
  5
121
330
1F
100
AcDbEntity
  8
1
  6
Continuous
 62
    30
370
    18
100
AcDbCircle
 10
356.585116
 20
547.666741
 30
0.0
 40
4.75
100
AcDbArc
 50
90.0
 51
200.839848
  0
ARC
  5
122
330
1F
100
AcDbEntity
  8
1
  6
Continuous
 62
    30
370
    18
100
AcDbCircle
 10
403.742674
 20
547.666741
 30
0.0
 40
4.75
100
AcDbArc
 50
339.160152
 51
90.0
  0
ARC
  5
123
330
1F
100
AcDbEntity
  8
1
  6
Continuous
 62
    30
370
    18
100
AcDbCircle
 10
376.413895
 20
587.402586
 30
0.0
 40
4.75
100
AcDbArc
 50
98.058662
 51
180.0
  0
ARC
  5
124
330
1F
100
AcDbEntity
  8
1
  6
Continuous
 62
    30
370
    18
100
AcDbCircle
 10
383.913895
 20
587.402586
 30
0.0
 40
4.75
100
AcDbArc
 50
0.0
 51
81.941338
  0
ARC
  5
125
330
1F
100
AcDbEntity
  8
1
  6
Continuous
 62
    30
370
    18
100
AcDbCircle
 10
380.163895
 20
560.916741
 30
0.0
 40
31.50000000000001
100
AcDbArc
 50
81.941338
 51
98.058662
  0
ARC
  5
126
330
1F
100
AcDbEntity
  8
1
  6
Continuous
 62
   252
370
    18
100
AcDbCircle
 10
364.163895
 20
509.416741
 30
0.0
 40
1.0
100
AcDbArc
 50
0.0
 51
90.0
  0
ARC
  5
127
330
1F
100
AcDbEntity
  8
1
  6
Continuous
 62
   252
370
    18
100
AcDbCircle
 10
396.163895
 20
509.416741
 30
0.0
 40
1.0
100
AcDbArc
 50
90.0
 51
180.0
  0
ARC
  5
128
330
1F
100
AcDbEntity
  8
1
  6
Continuous
 62
   252
370
    18
100
AcDbCircle
 10
349.663895
 20
511.416741
 30
0.0
 40
1.0
100
AcDbArc
 50
180.0
 51
270.0
  0
ARC
  5
129
330
1F
100
AcDbEntity
  8
1
  6
Continuous
 62
   252
370
    18
100
AcDbCircle
 10
410.663895
 20
511.416741
 30
0.0
 40
1.0
100
AcDbArc
 50
270.0
 51
0.0
  0
ARC
  5
12A
330
1F
100
AcDbEntity
  8
2
  6
Continuous
 62
    30
370
    18
100
AcDbCircle
 10
380.163895
 20
593.416741
 30
0.0
 40
20.0
100
AcDbArc
 50
295.149374
 51
0.0
  0
ARC
  5
12B
330
1F
100
AcDbEntity
  8
2
  6
Continuous
 62
    30
370
    18
100
AcDbCircle
 10
380.163895
 20
593.416741
 30
0.0
 40
20.0
100
AcDbArc
 50
180.0
 51
244.850626
  0
ARC
  5
12C
330
1F
100
AcDbEntity
  8
2
  6
Continuous
 62
    30
370
    18
100
AcDbCircle
 10
811.547911
 20
687.916741
 30
0.0
 40
8.5
100
AcDbArc
 50
0.0
 51
180.0
  0
ARC
  5
12D
330
1F
100
AcDbEntity
  8
2
  6
Continuous
 62
    30
370
    18
100
AcDbCircle
 10
811.547911
 20
585.916741
 30
0.0
 40
8.5
100
AcDbArc
 50
180.0
 51
0.0
  0
ARC
  5
12E
330
1F
100
AcDbEntity
  8
1
  6
Continuous
 62
    30
370
    18
100
AcDbCircle
 10
811.547911
 20
581.916741
 30
0.0
 40
31.50000000000001
100
AcDbArc
 50
0.0
 51
74.345263
  0
ARC
  5
12F
330
1F
100
AcDbEntity
  8
1
  6
Continuous
 62
    30
370
    18
100
AcDbCircle
 10
811.547911
 20
581.916741
 30
0.0
 40
31.50000000000001
100
AcDbArc
 50
105.654313
 51
200.839848
  0
ARC
  5
130
330
1F
100
AcDbEntity
  8
1
  6
Continuous
 62
    30
370
    18
100
AcDbCircle
 10
811.547911
 20
581.916741
 30
0.0
 40
31.50000000000001
100
AcDbArc
 50
339.160152
 51
0.0
  0
ARC
  5
131
330
1F
100
AcDbEntity
  8
1
  6
Continuous
 62
   252
370
    18
100
AcDbCircle
 10
795.547911
 20
530.416741
 30
0.0
 40
1.0
100
AcDbArc
 50
0.0
 51
90.0
  0
ARC
  5
132
330
1F
100
AcDbEntity
  8
1
  6
Continuous
 62
   252
370
    18
100
AcDbCircle
 10
827.547911
 20
530.416741
 30
0.0
 40
1.0
100
AcDbArc
 50
90.0
 51
180.0
  0
ARC
  5
133
330
1F
100
AcDbEntity
  8
1
  6
Continuous
 62
   252
370
    18
100
AcDbCircle
 10
781.047911
 20
532.416741
 30
0.0
 40
1.0
100
AcDbArc
 50
180.0
 51
270.0
  0
ARC
  5
134
330
1F
100
AcDbEntity
  8
1
  6
Continuous
 62
   252
370
    18
100
AcDbCircle
 10
842.047911
 20
532.416741
 30
0.0
 40
1.0
100
AcDbArc
 50
270.0
 51
0.0
  0
ARC
  5
135
330
1F
100
AcDbEntity
  8
1
  6
Continuous
 62
    30
370
    18
100
AcDbCircle
 10
811.547911
 20
583.916741
 30
0.0
 40
10.5
100
AcDbArc
 50
352.464091
 51
35.952913
  0
ARC
  5
136
330
1F
100
AcDbEntity
  8
1
  6
Continuous
 62
    30
370
    18
100
AcDbCircle
 10
811.547911
 20
583.916741
 30
0.0
 40
10.5
100
AcDbArc
 50
144.047087
 51
187.535909
  0
ARC
  5
137
330
1F
100
AcDbEntity
  8
1
  6
Continuous
 62
    30
370
    13
100
AcDbCircle
 10
811.547911
 20
583.916741
 30
0.0
 40
15.25
100
AcDbArc
 50
123.872393
 51
187.535909
  0
ARC
  5
138
330
1F
100
AcDbEntity
  8
1
  6
Continuous
 62
    30
370
    13
100
AcDbCircle
 10
811.547911
 20
583.916741
 30
0.0
 40
15.25
100
AcDbArc
 50
352.464091
 51
56.127607
  0
ARC
  5
139
330
1F
100
AcDbEntity
  8
1
  6
Continuous
 62
    30
370
    13
100
AcDbCircle
 10
811.547911
 20
581.916741
 30
0.0
 40
31.18893929732295
100
AcDbArc
 50
105.814688
 51
180.0
  0
ARC
  5
13A
330
1F
100
AcDbEntity
  8
1
  6
Continuous
 62
    30
370
    13
100
AcDbCircle
 10
811.547911
 20
581.916741
 30
0.0
 40
31.18893929732295
100
AcDbArc
 50
0.0
 51
74.185312
  0
ARC
  5
13B
330
1F
100
AcDbEntity
  8
1
  6
Continuous
 62
    30
370
    13
100
AcDbCircle
 10
811.547911
 20
581.916741
 30
0.0
 40
26.48584527629806
100
AcDbArc
 50
0.0
 51
71.282813
  0
ARC
  5
13C
330
1F
100
AcDbEntity
  8
1
  6
Continuous
 62
    30
370
    13
100
AcDbCircle
 10
811.547911
 20
581.916741
 30
0.0
 40
26.48584527629806
100
AcDbArc
 50
108.717187
 51
180.0
  0
ARC
  5
13D
330
1F
100
AcDbEntity
  8
1
  6
Continuous
 62
    30
370
    18
100
AcDbCircle
 10
819.345997
 20
605.341723
 30
0.0
 40
0.7124999999999995
100
AcDbArc
 50
0.0
 51
9.894358
  0
ARC
  5
13E
330
1F
100
AcDbEntity
  8
1
  6
Continuous
 62
    30
370
    18
100
AcDbCircle
 10
819.345997
 20
605.341723
 30
0.0
 40
0.7124999999999995
100
AcDbArc
 50
350.105642
 51
0.0
  0
CIRCLE
  5
13F
330
1F
100
AcDbEntity
  8
1
  6
Continuous
 62
    30
370
    18
100
AcDbCircle
 10
821.0596
 20
604.637932
 30
0.0
 40
0.7125000000000004
  0
CIRCLE
  5
140
330
1F
100
AcDbEntity
  8
1
  6
Continuous
 62
    30
370
    18
100
AcDbCircle
 10
822.710411
 20
603.797349
 30
0.0
 40
0.7125000000000004
  0
ARC
  5
141
330
1F
100
AcDbEntity
  8
1
  6
Continuous
 62
    30
370
    18
100
AcDbCircle
 10
380.163895
 20
147.840966
 30
0.0
 40
28.3287789097733
100
AcDbArc
 50
136.136054
 51
162.540778
  0
ARC
  5
142
330
1F
100
AcDbEntity
  8
1
  6
Continuous
 62
    30
370
    18
100
AcDbCircle
 10
380.163895
 20
147.840966
 30
0.0
 40
28.3287789097733
100
AcDbArc
 50
197.459222
 51
223.863946
  0
ARC
  5
143
330
1F
100
AcDbEntity
  8
1
  6
Continuous
 62
    30
370
    18
100
AcDbCircle
 10
380.163895
 20
147.840966
 30
0.0
 40
28.3287789097733
100
AcDbArc
 50
316.136054
 51
342.540778
  0
ARC
  5
144
330
1F
100
AcDbEntity
  8
1
  6
Continuous
 62
    30
370
    18
100
AcDbCircle
 10
380.163895
 20
147.840966
 30
0.0
 40
28.3287789097733
100
AcDbArc
 50
17.459222
 51
43.863946
  0
ARC
  5
145
330
1F
100
AcDbEntity
  8
1
  6
Continuous
 62
    30
370
    18
100
AcDbCircle
 10
380.163895
 20
147.840966
 30
0.0
 40
31.50000000000001
100
AcDbArc
 50
270.0
 51
278.058851
  0
ARC
  5
146
330
1F
100
AcDbEntity
  8
1
  6
Continuous
 62
    30
370
    18
100
AcDbCircle
 10
380.163895
 20
147.840966
 30
0.0
 40
31.50000000000001
100
AcDbArc
 50
81.941383
 51
98.058662
  0
ARC
  5
147
330
1F
100
AcDbEntity
  8
1
  6
Continuous
 62
    30
370
    18
100
AcDbCircle
 10
380.163895
 20
147.840966
 30
0.0
 40
31.50000000000001
100
AcDbArc
 50
261.941361
 51
270.0
  0
ARC
  5
148
330
1F
100
AcDbEntity
  8
2
  6
Continuous
 62
    30
370
    18
100
AcDbCircle
 10
408.663895
 20
147.840966
 30
0.0
 40
8.5
100
AcDbArc
 50
269.999999
 51
0.0
  0
ARC
  5
149
330
1F
100
AcDbEntity
  8
2
  6
Continuous
 62
    30
370
    18
100
AcDbCircle
 10
408.663895
 20
147.840966
 30
0.0
 40
8.5
100
AcDbArc
 50
0.0
 51
90.000001
  0
ARC
  5
14A
330
1F
100
AcDbEntity
  8
2
  6
Continuous
 62
    30
370
    18
100
AcDbCircle
 10
351.663895
 20
147.840966
 30
0.0
 40
8.5
100
AcDbArc
 50
180.0
 51
270.000001
  0
ARC
  5
14B
330
1F
100
AcDbEntity
  8
2
  6
Continuous
 62
    30
370
    18
100
AcDbCircle
 10
351.663895
 20
147.840966
 30
0.0
 40
8.5
100
AcDbArc
 50
89.999999
 51
180.0
  0
ARC
  5
14C
330
1F
100
AcDbEntity
  8
1
  6
Continuous
 62
    30
370
    13
100
AcDbCircle
 10
380.163895
 20
147.840966
 30
0.0
 40
23.5787789097733
100
AcDbArc
 50
136.136054
 51
158.869914
  0
ARC
  5
14D
330
1F
100
AcDbEntity
  8
1
  6
Continuous
 62
    30
370
    13
100
AcDbCircle
 10
380.163895
 20
147.840966
 30
0.0
 40
23.5787789097733
100
AcDbArc
 50
201.130086
 51
223.863946
  0
ARC
  5
14E
330
1F
100
AcDbEntity
  8
1
  6
Continuous
 62
    30
370
    13
100
AcDbCircle
 10
380.163895
 20
147.840966
 30
0.0
 40
23.5787789097733
100
AcDbArc
 50
316.136054
 51
338.869914
  0
ARC
  5
14F
330
1F
100
AcDbEntity
  8
1
  6
Continuous
 62
    30
370
    13
100
AcDbCircle
 10
380.163895
 20
147.840966
 30
0.0
 40
23.5787789097733
100
AcDbArc
 50
21.130086
 51
43.863946
  0
ARC
  5
150
330
1F
100
AcDbEntity
  8
1
  6
Continuous
 62
    30
370
    18
100
AcDbCircle
 10
383.913895
 20
174.326811
 30
0.0
 40
4.75
100
AcDbArc
 50
0.0
 51
81.941338
  0
ARC
  5
151
330
1F
100
AcDbEntity
  8
1
  6
Continuous
 62
    30
370
    18
100
AcDbCircle
 10
383.913895
 20
121.355121
 30
0.0
 40
4.75
100
AcDbArc
 50
278.058662
 51
0.0
  0
ARC
  5
152
330
1F
100
AcDbEntity
  8
1
  6
Continuous
 62
    30
370
    18
100
AcDbCircle
 10
376.413895
 20
121.355121
 30
0.0
 40
4.75
100
AcDbArc
 50
180.0
 51
261.941338
  0
ARC
  5
153
330
1F
100
AcDbEntity
  8
1
  6
Continuous
 62
    30
370
    18
100
AcDbCircle
 10
376.413895
 20
174.326811
 30
0.0
 40
4.75
100
AcDbArc
 50
98.058662
 51
180.0
  0
ARC
  5
154
330
1F
100
AcDbEntity
  8
1
  6
Continuous
 62
   252
370
    18
100
AcDbCircle
 10
380.163895
 20
147.840966
 30
0.0
 40
31.5
100
AcDbArc
 50
278.055001
 51
344.745
  0
ARC
  5
155
330
1F
100
AcDbEntity
  8
1
  6
Continuous
 62
   252
370
    18
100
AcDbCircle
 10
380.163895
 20
147.840966
 30
0.0
 40
31.5
100
AcDbArc
 50
195.249376
 51
261.939375
  0
ARC
  5
156
330
1F
100
AcDbEntity
  8
1
  6
Continuous
 62
   252
370
    18
100
AcDbCircle
 10
380.163895
 20
147.840966
 30
0.0
 40
31.5
100
AcDbArc
 50
98.060626
 51
164.750625
  0
ARC
  5
157
330
1F
100
AcDbEntity
  8
1
  6
Continuous
 62
   252
370
    18
100
AcDbCircle
 10
380.163895
 20
147.840966
 30
0.0
 40
31.5
100
AcDbArc
 50
15.255001
 51
81.945
  0
ELLIPSE
  5
158
330
1F
100
AcDbEntity
  8
1
  6
Continuous
 62
    30
370
    13
100
AcDbEllipse
 10
363.163895
 20
547.666741
 30
0.0
 11
0.0
 21
-4.75
 31
0.0
210
0.0
220
0.0
230
1.0
 40
0.720987
 41
3.141592653589792
 42
5.076112944486828
  0
ELLIPSE
  5
159
330
1F
100
AcDbEntity
  8
1
  6
Continuous
 62
    30
370
    13
100
AcDbEllipse
 10
397.163895
 20
547.666741
 30
0.0
 11
0.0
 21
-4.75
 31
0.0
210
0.0
220
0.0
230
1.0
 40
0.720987
 41
1.207072362692758
 42
3.141592653589793
  0
ELLIPSE
  5
15A
330
1F
100
AcDbEntity
  8
1
  6
Continuous
 62
    30
370
    13
100
AcDbEllipse
 10
372.38337
 20
551.40024
 30
0.0
 11
3.305094784068732
 21
-3.411575657716192
 31
0.0
210
0.0
220
0.0
230
1.0
 40
0.457089
 41
3.141592653589793
 42
4.765544465531022
  0
ELLIPSE
  5
15B
330
1F
100
AcDbEntity
  8
1
  6
Continuous
 62
    30
370
    13
100
AcDbEllipse
 10
387.94442
 20
551.40024
 30
0.0
 11
3.305094784068721
 21
3.411575657716202
 31
0.0
210
0.0
220
0.0
230
1.0
 40
0.457089
 41
4.659233495238359
 42
6.283185307179584
  0
ELLIPSE
  5
15C
330
1F
100
AcDbEntity
  8
1
  6
Continuous
 62
    30
370
    13
100
AcDbEllipse
 10
787.789499
 20
572.40024
 30
0.0
 11
3.820826017059467
 21
2.822018523568102
 31
0.0
210
0.0
220
0.0
230
1.0
 40
0.638806
 41
1.129950122211399
 42
2.753901934152625
  0
ELLIPSE
  5
15D
330
1F
100
AcDbEntity
  8
1
  6
Continuous
 62
    30
370
    13
100
AcDbEllipse
 10
835.306323
 20
572.40024
 30
0.0
 11
3.820826017059464
 21
-2.822018523568107
 31
0.0
210
0.0
220
0.0
230
1.0
 40
0.638806
 41
0.3876907194371637
 42
2.011642531378393
  0
ELLIPSE
  5
15E
330
1F
100
AcDbEntity
  8
1
  6
Continuous
 62
    30
370
    13
100
AcDbEllipse
 10
827.886785
 20
568.666741
 30
0.0
 11
0.0
 21
-4.75
 31
0.0
210
0.0
220
0.0
230
1.0
 40
0.692948
 41
1.207072362692758
 42
3.141592653589794
  0
ELLIPSE
  5
15F
330
1F
100
AcDbEntity
  8
1
  6
Continuous
 62
    30
370
    13
100
AcDbEllipse
 10
795.209036
 20
568.666741
 30
0.0
 11
0.0
 21
-4.75
 31
0.0
210
0.0
220
0.0
230
1.0
 40
0.692948
 41
3.141592653589793
 42
5.076112944486828
  0
ELLIPSE
  5
160
330
1F
100
AcDbEntity
  8
1
  6
Continuous
 62
    30
370
    13
100
AcDbEllipse
 10
372.38337
 20
171.599378
 30
0.0
 11
2.764078665912702
 21
-3.862948243071121
 31
0.0
210
0.0
220
0.0
230
1.0
 40
0.618868
 41
3.1448487863755
 42
4.295520210042191
  0
ELLIPSE
  5
161
330
1F
100
AcDbEntity
  8
1
  6
Continuous
 62
    30
370
    13
100
AcDbEllipse
 10
387.94442
 20
124.082554
 30
0.0
 11
-2.76407866591271
 21
3.862948243071115
 31
0.0
210
0.0
220
0.0
230
1.0
 40
0.618868
 41
3.144848786375496
 42
4.29552021004219
  0
ELLIPSE
  5
162
330
1F
100
AcDbEntity
  8
1
  6
Continuous
 62
    30
370
    13
100
AcDbEllipse
 10
372.38337
 20
124.082554
 30
0.0
 11
-2.76407866591272
 21
-3.862948243071108
 31
0.0
210
0.0
220
0.0
230
1.0
 40
0.618868
 41
5.129257750727193
 42
6.281629044966719
  0
ELLIPSE
  5
163
330
1F
100
AcDbEntity
  8
1
  6
Continuous
 62
    30
370
    13
100
AcDbEllipse
 10
387.94442
 20
171.599378
 30
0.0
 11
2.764078665912712
 21
3.862948243071113
 31
0.0
210
0.0
220
0.0
230
1.0
 40
0.618868
 41
5.129257750727191
 42
6.281629044966714
  0
SPLINE
  5
164
330
1F
100
AcDbEntity
  8
1
  6
Continuous
 62
    30
370
    18
100
AcDbSpline
210
0.0
220
0.0
230
1.0
 70
     8
 71
     3
 72
    27
 73
    23
 74
     0
 42
0.000000001
 43
0.0000000001
 40
0.0
 40
0.0
 40
0.0
 40
0.0
 40
0.1250000000000018
 40
0.1250000000000018
 40
0.2500000000000036
 40
0.2500000000000036
 40
0.3750000000000051
 40
0.3750000000000051
 40
0.5000000000000066
 40
0.5000000000000066
 40
0.5312500000000069
 40
0.5468750000000062
 40
0.5468750000000062
 40
0.5625000000000056
 40
0.5625000000000056
 40
0.6250000000000049
 40
0.6250000000000049
 40
0.7500000000000032
 40
0.7500000000000032
 40
0.8750000000000017
 40
0.8750000000000017
 40
1.0
 40
1.0
 40
1.0
 40
1.0
 10
363.1638948357409
 20
552.4167405981447
 30
0.0
 10
363.3825154098084
 20
552.4167405981447
 30
0.0
 10
363.6069984155541
 20
552.4251626745327
 30
0.0
 10
364.0670095999953
 20
552.4617054037883
 30
0.0
 10
364.302541480788
 20
552.4898229064523
 30
0.0
 10
364.7837584166406
 20
552.5689564643694
 30
0.0
 10
365.0294485493253
 20
552.6199692063584
 30
0.0
 10
365.5297423001172
 20
552.7485417782618
 30
0.0
 10
365.7843529397514
 20
552.8260982148024
 30
0.0
 10
366.1070831032605
 20
552.9422595021692
 30
0.0
 10
366.2042347592876
 20
552.9785512934052
 30
0.0
 10
366.3018461672688
 20
553.0170890304089
 30
0.0
 10
366.3670178753584
 20
553.0432892428787
 30
0.0
 10
366.3996545392076
 20
553.0566447138516
 30
0.0
 10
366.5627208889678
 20
553.1245681050805
 30
0.0
 10
366.6930765432932
 20
553.1826836506094
 30
0.0
 10
367.0832253974163
 20
553.3687680545487
 30
0.0
 10
367.3421182849222
 20
553.5084778446545
 30
0.0
 10
367.853752281745
 20
553.8213092967932
 30
0.0
 10
368.1064958626271
 20
553.9944312013117
 30
0.0
 10
368.6014983742613
 20
554.37608772138
 30
0.0
 10
368.8437601940326
 20
554.5846205464501
 30
0.0
 10
369.0782749756534
 20
554.8118157369682
 30
0.0
  0
SPLINE
  5
165
330
1F
100
AcDbEntity
  8
1
  6
Continuous
 62
    30
370
    18
100
AcDbSpline
210
0.0
220
0.0
230
1.0
 70
     8
 71
     3
 72
    30
 73
    26
 74
     0
 42
0.000000001
 43
0.0000000001
 40
0.0
 40
0.0
 40
0.0
 40
0.0
 40
0.1249999999999994
 40
0.1249999999999994
 40
0.2499999999999988
 40
0.2499999999999988
 40
0.3749999999999982
 40
0.3749999999999982
 40
0.4062499999999981
 40
0.4218749999999981
 40
0.4218749999999981
 40
0.4374999999999979
 40
0.4374999999999979
 40
0.4999999999999982
 40
0.4999999999999982
 40
0.6249999999999993
 40
0.6249999999999993
 40
0.7500000000000003
 40
0.7500000000000003
 40
0.8750000000000011
 40
0.8750000000000011
 40
0.9062500000000009
 40
0.9062500000000009
 40
0.9375000000000007
 40
1.0
 40
1.0
 40
1.0
 40
1.0
 10
391.2495146958285
 20
554.8118157369684
 30
0.0
 10
391.4834880914573
 20
554.5851450348971
 30
0.0
 10
391.725247732012
 20
554.3769793271525
 30
0.0
 10
392.2193738490503
 20
553.9958250508602
 30
0.0
 10
392.4717430392786
 20
553.8228382878775
 30
0.0
 10
392.9827820774514
 20
553.5101196026349
 30
0.0
 10
393.2414542373554
 20
553.3703874737149
 30
0.0
 10
393.5664032381891
 20
553.2152316022759
 30
0.0
 10
393.6640105798241
 20
553.1701476469088
 30
0.0
 10
393.7617420914349
 20
553.1272209295404
 30
0.0
 10
393.8269176093054
 20
553.0990783546467
 30
0.0
 10
393.8595255001621
 20
553.0852409082166
 30
0.0
 10
394.022296029585
 20
553.0173569178024
 30
0.0
 10
394.1518702194581
 20
552.967121206172
 30
0.0
 10
394.5382121124628
 20
552.8278127766132
 30
0.0
 10
394.7925806337063
 20
552.7501231009012
 30
0.0
 10
395.293038337671
 20
552.621159343363
 30
0.0
 10
395.539133981457
 20
552.5698879176484
 30
0.0
 10
396.0216828734277
 20
552.4902852735928
 30
0.0
 10
396.2581409324842
 20
552.4619568093738
 30
0.0
 10
396.5470516224106
 20
552.4389540715401
 30
0.0
 10
396.6045028418353
 20
552.4349752016026
 30
0.0
 10
396.7185597560353
 20
552.4282224523428
 30
0.0
 10
396.8884421431148
 20
552.4198955704187
 30
0.0
 10
397.0546924027079
 20
552.4167405981447
 30
0.0
 10
397.163894835741
 20
552.4167405981447
 30
0.0
  0
SPLINE
  5
166
330
1F
100
AcDbEntity
  8
1
  6
Continuous
 62
    30
370
    13
100
AcDbSpline
210
0.0
220
0.0
230
1.0
 70
     8
 71
     3
 72
    28
 73
    24
 74
     0
 42
0.000000001
 43
0.0000000001
 40
0.0
 40
0.0
 40
0.0
 40
0.0
 40
0.0625000000000003
 40
0.0625000000000003
 40
0.0937500000000005
 40
0.0937500000000005
 40
0.1250000000000007
 40
0.1250000000000007
 40
0.2500000000000003
 40
0.2500000000000003
 40
0.375
 40
0.375
 40
0.4999999999999997
 40
0.4999999999999997
 40
0.5624999999999996
 40
0.5624999999999996
 40
0.6249999999999994
 40
0.6249999999999994
 40
0.7499999999999997
 40
0.7499999999999997
 40
0.8749999999999999
 40
0.8749999999999999
 40
1.0
 40
1.0
 40
1.0
 40
1.0
 10
400.3645360819016
 20
545.9768947116123
 30
0.0
 10
400.1509648548828
 20
545.9768947116123
 30
0.0
 10
399.9348378198607
 20
545.9805504904011
 30
0.0
 10
399.606932856776
 20
545.9918935262673
 30
0.0
 10
399.4970121268203
 20
545.9966513334938
 30
0.0
 10
399.2759524879532
 20
546.008186325378
 30
0.0
 10
399.1647757565224
 20
546.0149669068153
 30
0.0
 10
398.606910936118
 20
546.0540103084566
 30
0.0
 10
398.1536156149717
 20
546.101700471932
 30
0.0
 10
397.2351586831466
 20
546.233488559132
 30
0.0
 10
396.7699914664712
 20
546.3175783925196
 30
0.0
 10
395.8301330561508
 20
546.5262414681775
 30
0.0
 10
395.3554347181508
 20
546.6508041585996
 30
0.0
 10
394.6383002453545
 20
546.8717172367733
 30
0.0
 10
394.3983685669733
 20
546.9510560381591
 30
0.0
 10
393.9173918247427
 20
547.1217750669364
 30
0.0
 10
393.6777348715934
 20
547.2126628374632
 30
0.0
 10
392.9620228130815
 20
547.5024204994522
 30
0.0
 10
392.4892055207055
 20
547.7183600131199
 30
0.0
 10
391.5567180883128
 20
548.199009271804
 30
0.0
 10
391.0970372274751
 20
548.4637078945833
 30
0.0
 10
390.1961018465152
 20
549.0460146379846
 30
0.0
 10
389.7548306494184
 20
549.3636035332221
 30
0.0
 10
389.3260084766603
 20
549.7103941927197
 30
0.0
  0
SPLINE
  5
167
330
1F
100
AcDbEntity
  8
1
  6
Continuous
 62
    30
370
    13
100
AcDbSpline
210
0.0
220
0.0
230
1.0
 70
     8
 71
     3
 72
    28
 73
    24
 74
     0
 42
0.000000001
 43
0.0000000001
 40
0.0
 40
0.0
 40
0.0
 40
0.0
 40
0.1249999999999983
 40
0.1249999999999983
 40
0.2499999999999966
 40
0.2499999999999966
 40
0.3749999999999949
 40
0.3749999999999949
 40
0.4374999999999943
 40
0.4374999999999943
 40
0.4531249999999943
 40
0.4531249999999943
 40
0.4687499999999943
 40
0.4687499999999943
 40
0.4999999999999948
 40
0.4999999999999948
 40
0.6249999999999961
 40
0.6249999999999961
 40
0.7499999999999973
 40
0.7499999999999973
 40
0.8749999999999987
 40
0.8749999999999987
 40
1.0
 40
1.0
 40
1.0
 40
1.0
 10
371.0017811948215
 20
549.7103941927198
 30
0.0
 10
370.571870283619
 20
549.3627230649367
 30
0.0
 10
370.1295981780932
 20
549.0445214289488
 30
0.0
 10
369.226900329686
 20
548.4613616727364
 30
0.0
 10
368.7664574681933
 20
548.1964234858834
 30
0.0
 10
367.8327200861531
 20
547.7155471783128
 30
0.0
 10
367.3594146071916
 20
547.4996205614116
 30
0.0
 10
366.64318849074
 20
547.2099995209575
 30
0.0
 10
366.4033964358957
 20
547.1191769985402
 30
0.0
 10
366.1026629855439
 20
547.0125772812353
 30
0.0
 10
366.0424665543745
 20
546.9916038528258
 30
0.0
 10
365.9219819140475
 20
546.9503449159674
 30
0.0
 10
365.8617101601482
 20
546.9300654978113
 30
0.0
 10
365.6811671852904
 20
546.8703795114274
 30
0.0
 10
365.5610396685759
 20
546.8320806440599
 30
0.0
 10
364.9616916556144
 20
546.6478036725844
 30
0.0
 10
364.4863616965261
 20
546.5234311510272
 30
0.0
 10
363.5466128442604
 20
546.3154050692884
 30
0.0
 10
363.0821864793517
 20
546.2317633671257
 30
0.0
 10
362.1664204134078
 20
546.1008189836903
 30
0.0
 10
361.7150750422061
 20
546.0535251452585
 30
0.0
 10
360.8274214470894
 20
545.9915593019798
 30
0.0
 10
360.3911083997579
 20
545.9768947116123
 30
0.0
 10
359.9632535895803
 20
545.9768947116123
 30
0.0
  0
SPLINE
  5
168
330
1F
100
AcDbEntity
  8
1
  6
Continuous
 62
    30
370
    18
100
AcDbSpline
210
0.0
220
0.0
230
1.0
 70
     8
 71
     3
 72
    34
 73
    30
 74
     0
 42
0.000000001
 43
0.0000000001
 40
0.0
 40
0.0
 40
0.0
 40
0.0
 40
0.1250000000000032
 40
0.1250000000000032
 40
0.2500000000000065
 40
0.2500000000000065
 40
0.3125000000000066
 40
0.3125000000000066
 40
0.3437500000000072
 40
0.3437500000000072
 40
0.3750000000000077
 40
0.3750000000000077
 40
0.500000000000009
 40
0.500000000000009
 40
0.6250000000000102
 40
0.6250000000000102
 40
0.656250000000012
 40
0.656250000000012
 40
0.6718750000000129
 40
0.6718750000000129
 40
0.6875000000000139
 40
0.750000000000009
 40
0.750000000000009
 40
0.781250000000008
 40
0.781250000000008
 40
0.8125000000000069
 40
0.8750000000000047
 40
0.8750000000000047
 40
1.0
 40
1.0
 40
1.0
 40
1.0
 10
369.0782749756534
 20
554.8118157369684
 30
0.0
 10
369.2525308858043
 20
554.9806328342619
 30
0.0
 10
369.4224596784658
 20
555.1596823798446
 30
0.0
 10
369.7521489950697
 20
555.5401003505946
 30
0.0
 10
369.911916415133
 20
555.7414572316427
 30
0.0
 10
370.142492465776
 20
556.0622052539586
 30
0.0
 10
370.2178346998534
 20
556.1722472374553
 30
0.0
 10
370.3283449784058
 20
556.3423307600007
 30
0.0
 10
370.3647641821028
 20
556.3998626980397
 30
0.0
 10
370.436724248349
 20
556.5166658666277
 30
0.0
 10
370.4722944047885
 20
556.5759921921701
 30
0.0
 10
370.6467762093729
 20
556.8752925772775
 30
0.0
 10
370.7764172411419
 20
557.124508926516
 30
0.0
 10
371.0137328400407
 20
557.6438883664841
 30
0.0
 10
371.1214220795174
 20
557.9140385154994
 30
0.0
 10
371.2404314390868
 20
558.2662528653207
 30
0.0
 10
371.263450201824
 20
558.3374249391538
 30
0.0
 10
371.2967581357644
 20
558.4453136535699
 30
0.0
 10
371.3076566566733
 20
558.4814642423788
 30
0.0
 10
371.3289840896044
 20
558.5539572814879
 30
0.0
 10
371.3811645286439
 20
558.7357868504266
 30
0.0
 10
371.4276138944723
 20
558.9206160770299
 30
0.0
 10
371.4776300615006
 20
559.1453857375021
 30
0.0
 10
371.4933613657578
 20
559.2208850720876
 30
0.0
 10
371.5227395376721
 20
559.3721843871481
 30
0.0
 10
371.5637276660468
 20
559.5997730252612
 30
0.0
 10
371.5954657815542
 20
559.8292784593782
 30
0.0
 10
371.646472757257
 20
560.2908637128552
 30
0.0
 10
371.6638948357409
 20
560.6020096242883
 30
0.0
 10
371.6638948357409
 20
560.9167405981447
 30
0.0
  0
SPLINE
  5
169
330
1F
100
AcDbEntity
  8
1
  6
Continuous
 62
    30
370
    13
100
AcDbSpline
210
0.0
220
0.0
230
1.0
 70
     8
 71
     3
 72
    32
 73
    28
 74
     0
 42
0.000000001
 43
0.0000000001
 40
0.0
 40
0.0
 40
0.0
 40
0.0
 40
0.1249999999999906
 40
0.1249999999999906
 40
0.1874999999999867
 40
0.1874999999999867
 40
0.2187499999999848
 40
0.2343749999999837
 40
0.2343749999999837
 40
0.2499999999999827
 40
0.2499999999999827
 40
0.3749999999999853
 40
0.3749999999999853
 40
0.4999999999999879
 40
0.4999999999999879
 40
0.6249999999999905
 40
0.6249999999999905
 40
0.6562499999999915
 40
0.6562499999999915
 40
0.6718749999999918
 40
0.6718749999999918
 40
0.6874999999999922
 40
0.7499999999999939
 40
0.7499999999999939
 40
0.874999999999997
 40
0.874999999999997
 40
1.0
 40
1.0
 40
1.0
 40
1.0
 10
375.7480069852736
 20
560.9167405981447
 30
0.0
 10
375.7480069852736
 20
560.367766451887
 30
0.0
 10
375.7191168820124
 20
559.8229850489384
 30
0.0
 10
375.6336856944735
 20
559.0119317826228
 30
0.0
 10
375.5981772896968
 20
558.7426029217264
 30
0.0
 10
375.5343902579231
 20
558.3401426737033
 30
0.0
 10
375.4998643004865
 20
558.1392960231744
 30
0.0
 10
375.4613818457579
 20
557.9390264550022
 30
0.0
 10
375.4348459456736
 20
557.8056419924718
 30
0.0
 10
375.4211258143176
 20
557.7389601463938
 30
0.0
 10
375.2940075783669
 20
557.1409582157236
 30
0.0
 10
375.1551667375683
 20
556.6238929006433
 30
0.0
 10
374.8298011175905
 20
555.6167282659687
 30
0.0
 10
374.643258528225
 20
555.1266385769179
 30
0.0
 10
374.2247460423069
 20
554.1724568682864
 30
0.0
 10
373.9927675899725
 20
553.7083688808209
 30
0.0
 10
373.6749922493715
 20
553.1444143645698
 30
0.0
 10
373.6100441187102
 20
553.0324331285647
 30
0.0
 10
373.5105349184791
 20
552.8656795701397
 30
0.0
 10
373.4770284864525
 20
552.8103183700745
 30
0.0
 10
373.4095455458246
 20
552.70036250712
 30
0.0
 10
373.2395296676751
 20
552.427166709634
 30
0.0
 10
373.0630790038988
 20
552.1623270805592
 30
0.0
 10
372.6279236028472
 20
551.5420768995355
 30
0.0
 10
372.3222826417533
 20
551.1490256120045
 30
0.0
 10
371.682737004399
 20
550.4012837163193
 30
0.0
 10
371.3488224381788
 20
550.0466037094815
 30
0.0
 10
371.0017811948215
 20
549.7103941927198
 30
0.0
  0
SPLINE
  5
16A
330
1F
100
AcDbEntity
  8
1
  6
Continuous
 62
    30
370
    13
100
AcDbSpline
210
0.0
220
0.0
230
1.0
 70
     8
 71
     3
 72
    32
 73
    28
 74
     0
 42
0.000000001
 43
0.0000000001
 40
0.0
 40
0.0
 40
0.0
 40
0.0
 40
0.1250000000000015
 40
0.1250000000000015
 40
0.250000000000003
 40
0.250000000000003
 40
0.2812500000000037
 40
0.2812500000000037
 40
0.296875000000004
 40
0.296875000000004
 40
0.3125000000000044
 40
0.3750000000000076
 40
0.3750000000000076
 40
0.5000000000000144
 40
0.5000000000000144
 40
0.6250000000000213
 40
0.6250000000000213
 40
0.6406250000000211
 40
0.6406250000000211
 40
0.656250000000021
 40
0.656250000000021
 40
0.687500000000019
 40
0.7500000000000152
 40
0.7500000000000152
 40
0.8750000000000075
 40
0.8750000000000075
 40
1.0
 40
1.0
 40
1.0
 40
1.0
 10
389.3260084766603
 20
549.7103941927198
 30
0.0
 10
388.9788638355289
 20
550.0467038800415
 30
0.0
 10
388.6445092342982
 20
550.4018259430222
 30
0.0
 10
388.0035556100577
 20
551.1514006720389
 30
0.0
 10
387.6969458361398
 20
551.5458411194178
 30
0.0
 10
387.3328851209432
 20
552.0652574317163
 30
0.0
 10
387.2610355273974
 20
552.1704624115193
 30
0.0
 10
387.1547481286518
 20
552.3302973510761
 30
0.0
 10
387.1195432568998
 20
552.3839503316386
 30
0.0
 10
387.0497646314939
 20
552.4917421836698
 30
0.0
 10
386.8769409851806
 20
552.7623623257509
 30
0.0
 10
386.712244094025
 20
553.0386788456574
 30
0.0
 10
386.3327853990734
 20
553.712819723125
 30
0.0
 10
386.1008581530522
 20
554.1768590891505
 30
0.0
 10
385.6810939905045
 20
555.1350634147558
 30
0.0
 10
385.4932425723243
 20
555.629219360415
 30
0.0
 10
385.3086381805126
 20
556.2031818650736
 30
0.0
 10
385.2884989335744
 20
556.2672067894889
 30
0.0
 10
385.2489739281708
 20
556.3957645271333
 30
0.0
 10
385.2295900537929
 20
556.4602945322418
 30
0.0
 10
385.1727704061034
 20
556.6539929385301
 30
0.0
 10
385.0642563750204
 20
557.0424764872353
 30
0.0
 10
384.9710324573593
 20
557.4341952623927
 30
0.0
 10
384.8048933035675
 20
558.2219149572915
 30
0.0
 10
384.7211576920952
 20
558.7527584707814
 30
0.0
 10
384.6086075982159
 20
559.825969947077
 30
0.0
 10
384.5797826862083
 20
560.3683357240473
 30
0.0
 10
384.5797826862083
 20
560.9167405981447
 30
0.0
  0
SPLINE
  5
16B
330
1F
100
AcDbEntity
  8
1
  6
Continuous
 62
    30
370
    18
100
AcDbSpline
210
0.0
220
0.0
230
1.0
 70
     8
 71
     3
 72
    33
 73
    29
 74
     0
 42
0.000000001
 43
0.0000000001
 40
0.0
 40
0.0
 40
0.0
 40
0.0
 40
0.1249999999999948
 40
0.1249999999999948
 40
0.2499999999999897
 40
0.2499999999999897
 40
0.2812499999999903
 40
0.2812499999999903
 40
0.312499999999991
 40
0.312499999999991
 40
0.3437499999999916
 40
0.3437499999999916
 40
0.3749999999999923
 40
0.3749999999999923
 40
0.499999999999997
 40
0.499999999999997
 40
0.6250000000000017
 40
0.6250000000000017
 40
0.6875000000000049
 40
0.6875000000000049
 40
0.7031250000000049
 40
0.7031250000000049
 40
0.718750000000005
 40
0.7500000000000051
 40
0.7500000000000051
 40
0.8750000000000026
 40
0.8750000000000026
 40
1.0
 40
1.0
 40
1.0
 40
1.0
 10
388.663894835741
 20
560.9167405981447
 30
0.0
 10
388.663894835741
 20
560.6013015149438
 30
0.0
 10
388.6813904253904
 20
560.2904683558475
 30
0.0
 10
388.7490735388819
 20
559.6774341247423
 30
0.0
 10
388.7992719763332
 20
559.3752360002374
 30
0.0
 10
388.8818343730055
 20
559.0027665931129
 30
0.0
 10
388.8993403314838
 20
558.9285374676425
 30
0.0
 10
388.936334156277
 20
558.7806090226761
 30
0.0
 10
388.9558469938261
 20
558.7068247813273
 30
0.0
 10
388.9966793174486
 20
558.5603942801459
 30
0.0
 10
389.0180262580765
 20
558.4876437790814
 30
0.0
 10
389.0624040947133
 20
558.3435064436209
 30
0.0
 10
389.0854006339159
 20
558.272223581728
 30
0.0
 10
389.204260749169
 20
557.9196009096345
 30
0.0
 10
389.3117057757793
 20
557.6495853770359
 30
0.0
 10
389.5481106288412
 20
557.1311089221709
 30
0.0
 10
389.6770864182042
 20
556.8826628668273
 30
0.0
 10
389.8850573612245
 20
556.5249817391706
 30
0.0
 10
389.9568051410561
 20
556.408259162764
 30
0.0
 10
390.0493871453878
 20
556.2654032104753
 30
0.0
 10
390.0680397352582
 20
556.2369985897566
 30
0.0
 10
390.105521330799
 20
556.1806548370068
 30
0.0
 10
390.1620465907134
 20
556.0967783089139
 30
0.0
 10
390.2194573840435
 20
556.0147835805868
 30
0.0
 10
390.4126996102945
 20
555.7455058337783
 30
0.0
 10
390.5732634051377
 20
555.5429614841336
 30
0.0
 10
390.9043198676926
 20
555.1607310568373
 30
0.0
 10
391.0748199518227
 20
554.981057971392
 30
0.0
 10
391.2495146958285
 20
554.8118157369684
 30
0.0
  0
SPLINE
  5
16C
330
1F
100
AcDbEntity
  8
1
  6
Continuous
 62
    30
370
    18
100
AcDbSpline
210
0.0
220
0.0
230
1.0
 70
    24
 71
     3
 72
     8
 73
     4
 74
     0
 42
0.000000001
 43
0.0000000001
 40
0.0
 40
0.0
 40
0.0
 40
0.0
 40
1.0
 40
1.0
 40
1.0
 40
1.0
 10
371.163894835741
 20
576.9919461371811
 30
0.0
 10
371.163894835741
 20
577.073573048955
 30
0.0
 10
371.163894835741
 20
577.155199960729
 30
0.0
 10
371.163894835741
 20
577.2368268725029
 30
0.0
  0
SPLINE
  5
16D
330
1F
100
AcDbEntity
  8
1
  6
Continuous
 62
    30
370
    18
100
AcDbSpline
210
0.0
220
0.0
230
1.0
 70
    24
 71
     3
 72
     8
 73
     4
 74
     0
 42
0.000000001
 43
0.0000000001
 40
0.0
 40
0.0
 40
0.0
 40
0.0
 40
1.0
 40
1.0
 40
1.0
 40
1.0
 10
371.163894835741
 20
577.2368268725029
 30
0.0
 10
371.163894835741
 20
577.2772952058363
 30
0.0
 10
371.163894835741
 20
577.3177635391695
 30
0.0
 10
371.163894835741
 20
577.3582318725029
 30
0.0
  0
SPLINE
  5
16E
330
1F
100
AcDbEntity
  8
1
  6
Continuous
 62
    30
370
    18
100
AcDbSpline
210
0.0
220
0.0
230
1.0
 70
    24
 71
     3
 72
     8
 73
     4
 74
     0
 42
0.000000001
 43
0.0000000001
 40
0.0
 40
0.0
 40
0.0
 40
0.0
 40
1.0
 40
1.0
 40
1.0
 40
1.0
 10
389.163894835741
 20
583.7723761123056
 30
0.0
 10
389.163894835741
 20
583.7722691955158
 30
0.0
 10
389.163894835741
 20
583.7721622787262
 30
0.0
 10
389.163894835741
 20
583.7720553619365
 30
0.0
  0
SPLINE
  5
16F
330
1F
100
AcDbEntity
  8
1
  6
Continuous
 62
    30
370
    18
100
AcDbSpline
210
0.0
220
0.0
230
1.0
 70
    24
 71
     3
 72
     8
 73
     4
 74
     0
 42
0.000000001
 43
0.0000000001
 40
0.0
 40
0.0
 40
0.0
 40
0.0
 40
1.0
 40
1.0
 40
1.0
 40
1.0
 10
389.163894835741
 20
583.7712278396625
 30
0.0
 10
389.163894835741
 20
583.7711152236836
 30
0.0
 10
389.163894835741
 20
583.7710026077048
 30
0.0
 10
389.163894835741
 20
583.7708899917259
 30
0.0
  0
SPLINE
  5
170
330
1F
100
AcDbEntity
  8
1
  6
Continuous
 62
    30
370
    18
100
AcDbSpline
210
0.0
220
0.0
230
1.0
 70
     8
 71
     3
 72
     8
 73
     4
 74
     0
 42
0.000000001
 43
0.0000000001
 40
0.0
 40
0.0
 40
0.0
 40
0.0
 40
1.0
 40
1.0
 40
1.0
 40
1.0
 10
369.0383846552824
 20
554.7734149084774
 30
0.0
 10
369.0803646178219
 20
554.8135543290098
 30
0.0
 10
369.1221281657089
 20
554.8543103846906
 30
0.0
 10
369.1636675101394
 20
554.8957015609587
 30
0.0
  0
SPLINE
  5
171
330
1F
100
AcDbEntity
  8
1
  6
Continuous
 62
    30
370
    18
100
AcDbSpline
210
0.0
220
0.0
230
1.0
 70
    24
 71
     3
 72
     8
 73
     4
 74
     0
 42
0.000000001
 43
0.0000000001
 40
0.0
 40
0.0
 40
0.0
 40
0.0
 40
1.0
 40
1.0
 40
1.0
 40
1.0
 10
389.163894835741
 20
583.7700583660356
 30
0.0
 10
389.163894835741
 20
583.7699448381865
 30
0.0
 10
389.163894835741
 20
583.7698313103373
 30
0.0
 10
389.163894835741
 20
583.7697177824881
 30
0.0
  0
SPLINE
  5
172
330
1F
100
AcDbEntity
  8
1
  6
Continuous
 62
    30
370
    18
100
AcDbSpline
210
0.0
220
0.0
230
1.0
 70
    24
 71
     3
 72
     8
 73
     4
 74
     0
 42
0.000000001
 43
0.0000000001
 40
0.0
 40
0.0
 40
0.0
 40
0.0
 40
1.0
 40
1.0
 40
1.0
 40
1.0
 10
389.163894835741
 20
583.7697177824881
 30
0.0
 10
389.163894835741
 20
583.6430841158215
 30
0.0
 10
389.163894835741
 20
583.5164504491548
 30
0.0
 10
389.163894835741
 20
583.3898167824881
 30
0.0
  0
SPLINE
  5
173
330
1F
100
AcDbEntity
  8
1
  6
Continuous
 62
    30
370
    18
100
AcDbSpline
210
0.0
220
0.0
230
1.0
 70
    24
 71
     3
 72
    12
 73
     8
 74
     0
 42
0.000000001
 43
0.0000000001
 40
0.0
 40
0.0
 40
0.0
 40
0.0
 40
0.1692100753022935
 40
0.1692100753022935
 40
0.8399583951133281
 40
0.8399583951133281
 40
1.0
 40
1.0
 40
1.0
 40
1.0
 10
389.163894835741
 20
583.3595146100947
 30
0.0
 10
389.163894835741
 20
583.3594305175149
 30
0.0
 10
389.163894835741
 20
583.3444671881364
 30
0.0
 10
389.163894835741
 20
583.1973239053548
 30
0.0
 10
389.163894835741
 20
582.941512632221
 30
0.0
 10
389.163894835741
 20
582.4551652245851
 30
0.0
 10
389.163894835741
 20
582.3575910161387
 30
0.0
 10
389.163894835741
 20
582.2561476100973
 30
0.0
  0
SPLINE
  5
174
330
1F
100
AcDbEntity
  8
1
  6
Continuous
 62
    30
370
    18
100
AcDbSpline
210
0.0
220
0.0
230
1.0
 70
    24
 71
     3
 72
     8
 73
     4
 74
     0
 42
0.000000001
 43
0.0000000001
 40
0.0
 40
0.0
 40
0.0
 40
0.0
 40
1.0
 40
1.0
 40
1.0
 40
1.0
 10
371.163894835741
 20
577.3889379283229
 30
0.0
 10
371.163894835741
 20
577.4069355734664
 30
0.0
 10
371.163894835741
 20
577.5047045463632
 30
0.0
 10
371.163894835741
 20
577.6832626909079
 30
0.0
  0
SPLINE
  5
175
330
1F
100
AcDbEntity
  8
1
  6
Continuous
 62
    30
370
    18
100
AcDbSpline
210
0.0
220
0.0
230
1.0
 70
    24
 71
     3
 72
     8
 73
     4
 74
     0
 42
0.000000001
 43
0.0000000001
 40
0.0
 40
0.0
 40
0.0
 40
0.0
 40
1.0
 40
1.0
 40
1.0
 40
1.0
 10
389.163894835741
 20
582.1814010575185
 30
0.0
 10
389.163894835741
 20
582.1813095881655
 30
0.0
 10
389.163894835741
 20
582.1339789241566
 30
0.0
 10
389.163894835741
 20
582.0392060575186
 30
0.0
  0
SPLINE
  5
176
330
1F
100
AcDbEntity
  8
1
  6
Continuous
 62
    30
370
    18
100
AcDbSpline
210
0.0
220
0.0
230
1.0
 70
    24
 71
     3
 72
     8
 73
     4
 74
     0
 42
0.000000001
 43
0.0000000001
 40
0.0
 40
0.0
 40
0.0
 40
0.0
 40
1.0
 40
1.0
 40
1.0
 40
1.0
 10
389.163894835741
 20
582.0392060575186
 30
0.0
 10
389.163894835741
 20
581.924582487587
 30
0.0
 10
389.163894835741
 20
581.765746448882
 30
0.0
 10
389.163894835741
 20
581.5629480575187
 30
0.0
  0
SPLINE
  5
177
330
1F
100
AcDbEntity
  8
1
  6
Continuous
 62
    30
370
    18
100
AcDbSpline
210
0.0
220
0.0
230
1.0
 70
    24
 71
     3
 72
    10
 73
     6
 74
     0
 42
0.000000001
 43
0.0000000001
 40
0.0
 40
0.0
 40
0.0
 40
0.0
 40
0.8496804993073932
 40
0.8496804993073932
 40
1.0
 40
1.0
 40
1.0
 40
1.0
 10
371.163894835741
 20
581.5856274915791
 30
0.0
 10
371.163894835741
 20
581.7861306997082
 30
0.0
 10
371.163894835741
 20
581.9398579291518
 30
0.0
 10
371.163894835741
 20
582.0660574402181
 30
0.0
 10
371.163894835741
 20
582.0831743803494
 30
0.0
 10
371.163894835741
 20
582.0984394915782
 30
0.0
  0
SPLINE
  5
178
330
1F
100
AcDbEntity
  8
1
  6
Continuous
 62
    30
370
    18
100
AcDbSpline
210
0.0
220
0.0
230
1.0
 70
    24
 71
     3
 72
    10
 73
     6
 74
     0
 42
0.000000001
 43
0.0000000001
 40
0.0
 40
0.0
 40
0.0
 40
0.0
 40
0.3294987674609637
 40
0.3294987674609637
 40
1.0
 40
1.0
 40
1.0
 40
1.0
 10
371.163894835741
 20
577.6832626909079
 30
0.0
 10
371.163894835741
 20
577.8629282692928
 30
0.0
 10
371.163894835741
 20
578.1748015434202
 30
0.0
 10
371.163894835741
 20
579.5225485267918
 30
0.0
 10
371.163894835741
 20
580.426214540293
 30
0.0
 10
371.163894835741
 20
581.3298805537943
 30
0.0
  0
SPLINE
  5
179
330
1F
100
AcDbEntity
  8
1
  6
Continuous
 62
    30
370
    18
100
AcDbSpline
210
0.0
220
0.0
230
1.0
 70
    24
 71
     3
 72
     8
 73
     4
 74
     0
 42
0.000000001
 43
0.0000000001
 40
0.0
 40
0.0
 40
0.0
 40
0.0
 40
1.0
 40
1.0
 40
1.0
 40
1.0
 10
371.163894835741
 20
581.3298805537943
 30
0.0
 10
371.163894835741
 20
581.4050313613568
 30
0.0
 10
371.163894835741
 20
581.4801821689194
 30
0.0
 10
371.163894835741
 20
581.555332976482
 30
0.0
  0
SPLINE
  5
17A
330
1F
100
AcDbEntity
  8
1
  6
Continuous
 62
    30
370
    18
100
AcDbSpline
210
0.0
220
0.0
230
1.0
 70
    24
 71
     3
 72
     8
 73
     4
 74
     0
 42
0.000000001
 43
0.0000000001
 40
0.0
 40
0.0
 40
0.0
 40
0.0
 40
1.0
 40
1.0
 40
1.0
 40
1.0
 10
389.163894835741
 20
581.3275944900137
 30
0.0
 10
389.163894835741
 20
579.8823783724027
 30
0.0
 10
389.163894835741
 20
578.4371622547919
 30
0.0
 10
389.163894835741
 20
576.9919461371811
 30
0.0
  0
SPLINE
  5
17B
330
1F
100
AcDbEntity
  8
1
  6
Continuous
 62
    30
370
    18
100
AcDbSpline
210
0.0
220
0.0
230
1.0
 70
    24
 71
     3
 72
     8
 73
     4
 74
     0
 42
0.000000001
 43
0.0000000001
 40
0.0
 40
0.0
 40
0.0
 40
0.0
 40
1.0
 40
1.0
 40
1.0
 40
1.0
 10
389.163894835741
 20
581.5505379927963
 30
0.0
 10
389.163894835741
 20
581.4762234918687
 30
0.0
 10
389.163894835741
 20
581.4019089909411
 30
0.0
 10
389.163894835741
 20
581.3275944900137
 30
0.0
  0
SPLINE
  5
17C
330
1F
100
AcDbEntity
  8
1
  6
Continuous
 62
    30
370
    18
100
AcDbSpline
210
0.0
220
0.0
230
1.0
 70
     8
 71
     3
 72
     8
 73
     4
 74
     0
 42
0.000000001
 43
0.0000000001
 40
0.0
 40
0.0
 40
0.0
 40
0.0
 40
1.0
 40
1.0
 40
1.0
 40
1.0
 10
391.138910596662
 20
554.9209290643056
 30
0.0
 10
391.1876087240027
 20
554.8719947885003
 30
0.0
 10
391.2366185251395
 20
554.8239424175986
 30
0.0
 10
391.2859273675439
 20
554.7767419703827
 30
0.0
  0
SPLINE
  5
17D
330
1F
100
AcDbEntity
  8
1
  6
Continuous
 62
    30
370
    13
100
AcDbSpline
210
0.0
220
0.0
230
1.0
 70
     8
 71
     3
 72
    32
 73
    28
 74
     0
 42
0.000000001
 43
0.0000000001
 40
0.0
 40
0.0
 40
0.0
 40
0.0
 40
0.1249999999999906
 40
0.1249999999999906
 40
0.1874999999999867
 40
0.1874999999999867
 40
0.2187499999999848
 40
0.2343749999999837
 40
0.2343749999999837
 40
0.2499999999999827
 40
0.2499999999999827
 40
0.3749999999999853
 40
0.3749999999999853
 40
0.4999999999999879
 40
0.4999999999999879
 40
0.6249999999999905
 40
0.6249999999999905
 40
0.6562499999999915
 40
0.6562499999999915
 40
0.6718749999999918
 40
0.6718749999999918
 40
0.6874999999999922
 40
0.7499999999999939
 40
0.7499999999999939
 40
0.874999999999997
 40
0.874999999999997
 40
1.0
 40
1.0
 40
1.0
 40
1.0
 10
842.7368499510283
 20
581.9167405981447
 30
0.0
 10
842.7368499510283
 20
581.367766451887
 30
0.0
 10
842.7183227691584
 20
580.8229850489384
 30
0.0
 10
842.6633914380244
 20
580.0119317826228
 30
0.0
 10
842.6405447733418
 20
579.7426029217264
 30
0.0
 10
842.5994398827255
 20
579.3401426737033
 30
0.0
 10
842.5771775726599
 20
579.1392960231744
 30
0.0
 10
842.5523343281213
 20
578.9390264550022
 30
0.0
 10
842.5351961008537
 20
578.8056419924718
 30
0.0
 10
842.5263313873953
 20
578.7389601463938
 30
0.0
 10
842.4441615766315
 20
578.1409582157236
 30
0.0
 10
842.3541667626973
 20
577.6238929006433
 30
0.0
 10
842.1420053037018
 20
576.6167282659687
 30
0.0
 10
842.0198283522471
 20
576.1266385769179
 30
0.0
 10
841.7436325934669
 20
575.1724568682864
 30
0.0
 10
841.5896111373013
 20
574.7083688808209
 30
0.0
 10
841.3766495355922
 20
574.1444143645698
 30
0.0
 10
841.3330326101318
 20
574.0324331285647
 30
0.0
 10
841.2660516873991
 20
573.8656795701397
 30
0.0
 10
841.2434728866185
 20
573.8103183700745
 30
0.0
 10
841.1979456617278
 20
573.70036250712
 30
0.0
 10
841.0831137587949
 20
573.427166709634
 30
0.0
 10
840.9632511206757
 20
573.1623270805592
 30
0.0
 10
840.6661043360859
 20
572.5420768995355
 30
0.0
 10
840.4553958509705
 20
572.1490256120045
 30
0.0
 10
840.0090590263169
 20
571.4012837163193
 30
0.0
 10
839.7734267728016
 20
571.0466037094815
 30
0.0
 10
839.5251062578487
 20
570.7103941927198
 30
0.0
  0
SPLINE
  5
17E
330
1F
100
AcDbEntity
  8
1
  6
Continuous
 62
    30
370
    13
100
AcDbSpline
210
0.0
220
0.0
230
1.0
 70
     8
 71
     3
 72
    32
 73
    28
 74
     0
 42
0.000000001
 43
0.0000000001
 40
0.0
 40
0.0
 40
0.0
 40
0.0
 40
0.1249999999999995
 40
0.1249999999999995
 40
0.249999999999999
 40
0.249999999999999
 40
0.2812499999999993
 40
0.2812499999999993
 40
0.2968749999999995
 40
0.2968749999999995
 40
0.3124999999999996
 40
0.3750000000000031
 40
0.3750000000000031
 40
0.5000000000000095
 40
0.5000000000000095
 40
0.6250000000000161
 40
0.6250000000000161
 40
0.6406250000000158
 40
0.6406250000000158
 40
0.6562500000000153
 40
0.6562500000000153
 40
0.6875000000000132
 40
0.7500000000000105
 40
0.7500000000000105
 40
0.8750000000000052
 40
0.8750000000000052
 40
1.0
 40
1.0
 40
1.0
 40
1.0
 10
783.570715049562
 20
570.7103941927198
 30
0.0
 10
783.3223205497758
 20
571.0467038800415
 30
0.0
 10
783.0863762465196
 20
571.4018259430222
 30
0.0
 10
782.639070368004
 20
572.1514006720389
 30
0.0
 10
782.4277041867467
 20
572.5458411194178
 30
0.0
 10
782.1791280948648
 20
573.0652574317163
 30
0.0
 10
782.130196524891
 20
573.1704624115193
 30
0.0
 10
782.0579863443454
 20
573.3302973510761
 30
0.0
 10
782.0340981844497
 20
573.3839503316386
 30
0.0
 10
781.9868064789055
 20
573.4917421836698
 30
0.0
 10
781.8698193012258
 20
573.7623623257509
 30
0.0
 10
781.75900425827
 20
574.0386788456575
 30
0.0
 10
781.5047245689043
 20
574.712819723125
 30
0.0
 10
781.3507380028323
 20
575.1768590891505
 30
0.0
 10
781.0737331467278
 20
576.1350634147558
 30
0.0
 10
780.9507075617443
 20
576.629219360415
 30
0.0
 10
780.8303481424989
 20
577.2031818650736
 30
0.0
 10
780.8172263767957
 20
577.2672067894889
 30
0.0
 10
780.7914896344524
 20
577.3957645271333
 30
0.0
 10
780.7788759004474
 20
577.4602945322418
 30
0.0
 10
780.7419231703955
 20
577.6539929385301
 30
0.0
 10
780.6714398231043
 20
578.0424764872353
 30
0.0
 10
780.6110944198504
 20
578.4341952623927
 30
0.0
 10
780.5037128181795
 20
579.2219149572915
 30
0.0
 10
780.4498245635745
 20
579.7527584707814
 30
0.0
 10
780.377457180833
 20
580.825969947077
 30
0.0
 10
780.3589713563823
 20
581.3683357240473
 30
0.0
 10
780.3589713563824
 20
581.9167405981447
 30
0.0
  0
SPLINE
  5
17F
330
1F
100
AcDbEntity
  8
1
  6
Continuous
 62
    30
370
    13
100
AcDbSpline
210
0.0
220
0.0
230
1.0
 70
     8
 71
     3
 72
    34
 73
    30
 74
     0
 42
0.000000001
 43
0.0000000001
 40
0.0
 40
0.0
 40
0.0
 40
0.0
 40
0.1250000000000032
 40
0.1250000000000032
 40
0.2500000000000065
 40
0.2500000000000065
 40
0.3125000000000066
 40
0.3125000000000066
 40
0.3437500000000072
 40
0.3437500000000072
 40
0.3750000000000077
 40
0.3750000000000077
 40
0.500000000000009
 40
0.500000000000009
 40
0.6250000000000102
 40
0.6250000000000102
 40
0.656250000000012
 40
0.656250000000012
 40
0.6718750000000129
 40
0.6718750000000129
 40
0.6875000000000139
 40
0.750000000000009
 40
0.750000000000009
 40
0.781250000000008
 40
0.781250000000008
 40
0.8125000000000069
 40
0.8750000000000047
 40
0.8750000000000047
 40
1.0
 40
1.0
 40
1.0
 40
1.0
 10
835.3063227937319
 20
575.8118157369684
 30
0.0
 10
835.5006868611529
 20
575.9806328342619
 30
0.0
 10
835.6878402634273
 20
576.1596823798446
 30
0.0
 10
836.0470889122172
 20
576.5401003505946
 30
0.0
 10
836.2191904459614
 20
576.7414572316427
 30
0.0
 10
836.4652219073671
 20
577.0622052539586
 30
0.0
 10
836.5452080067374
 20
577.1722472374553
 30
0.0
 10
836.661997798189
 20
577.3423307600007
 30
0.0
 10
836.7003957800258
 20
577.3998626980397
 30
0.0
 10
836.7760971034053
 20
577.5166658666277
 30
0.0
 10
836.8134308928571
 20
577.5759921921701
 30
0.0
 10
836.9961735714352
 20
577.8752925772775
 30
0.0
 10
837.13069102273
 20
578.124508926516
 30
0.0
 10
837.3753452563017
 20
578.6438883664841
 30
0.0
 10
837.4854960354385
 20
578.9140385154994
 30
0.0
 10
837.6066333190048
 20
579.2662528653207
 30
0.0
 10
837.630029864479
 20
579.3374249391538
 30
0.0
 10
837.6638422268255
 20
579.4453136535699
 30
0.0
 10
837.6748984899959
 20
579.4814642423788
 30
0.0
 10
837.6965214646648
 20
579.5539572814879
 30
0.0
 10
837.7493912963394
 20
579.7357868504266
 30
0.0
 10
837.7963056610606
 20
579.9206160770299
 30
0.0
 10
837.8467366646247
 20
580.1453857375021
 30
0.0
 10
837.8625823154306
 20
580.2208850720876
 30
0.0
 10
837.8921507789369
 20
580.3721843871481
 30
0.0
 10
837.9333668735178
 20
580.5997730252612
 30
0.0
 10
837.965207083223
 20
580.8292784593782
 30
0.0
 10
838.0163407527493
 20
581.2908637128552
 30
0.0
 10
838.0337559300034
 20
581.6020096242883
 30
0.0
 10
838.0337559300034
 20
581.9167405981447
 30
0.0
  0
SPLINE
  5
180
330
1F
100
AcDbEntity
  8
1
  6
Continuous
 62
    30
370
    13
100
AcDbSpline
210
0.0
220
0.0
230
1.0
 70
     8
 71
     3
 72
    33
 73
    29
 74
     0
 42
0.000000001
 43
0.0000000001
 40
0.0
 40
0.0
 40
0.0
 40
0.0
 40
0.1250000000000044
 40
0.1250000000000044
 40
0.2500000000000089
 40
0.2500000000000089
 40
0.2812500000000084
 40
0.2812500000000084
 40
0.312500000000008
 40
0.312500000000008
 40
0.3437500000000075
 40
0.3437500000000075
 40
0.3750000000000071
 40
0.3750000000000071
 40
0.5000000000000067
 40
0.5000000000000067
 40
0.6250000000000062
 40
0.6250000000000062
 40
0.6875000000000072
 40
0.6875000000000072
 40
0.7031250000000068
 40
0.7031250000000068
 40
0.7187500000000063
 40
0.7500000000000053
 40
0.7500000000000053
 40
0.8750000000000027
 40
0.8750000000000027
 40
1.0
 40
1.0
 40
1.0
 40
1.0
 10
785.0620653774073
 20
581.9167405981447
 30
0.0
 10
785.0620653774073
 20
581.6013015149438
 30
0.0
 10
785.0795543638247
 20
581.2904683558475
 30
0.0
 10
785.1474053617037
 20
580.6774341247423
 30
0.0
 10
785.1977788458062
 20
580.3752360002374
 30
0.0
 10
785.2810211976516
 20
580.0027665931129
 30
0.0
 10
785.2986870856272
 20
579.9285374676425
 30
0.0
 10
785.3360609438334
 20
579.7806090226761
 30
0.0
 10
785.3557942258116
 20
579.7068247813273
 30
0.0
 10
785.3971391580046
 20
579.5603942801459
 30
0.0
 10
785.4187785993461
 20
579.4876437790814
 30
0.0
 10
785.4638251498508
 20
579.3435064436209
 30
0.0
 10
785.4871973460433
 20
579.272223581728
 30
0.0
 10
785.6081733168115
 20
578.9196009096345
 30
0.0
 10
785.7180661685783
 20
578.6495853770359
 30
0.0
 10
785.9617540663324
 20
578.1311089221708
 30
0.0
 10
786.0955645134754
 20
577.8826628668273
 30
0.0
 10
786.3133380274941
 20
577.5249817391706
 30
0.0
 10
786.3887795502771
 20
577.4082591627641
 30
0.0
 10
786.4866000267141
 20
577.2654032104753
 30
0.0
 10
786.5063309457797
 20
577.2369985897566
 30
0.0
 10
786.546026930579
 20
577.1806548370068
 30
0.0
 10
786.6059625151892
 20
577.0967783089139
 30
0.0
 10
786.6670568699988
 20
577.0147835805868
 30
0.0
 10
786.8732161670789
 20
576.7455058337783
 30
0.0
 10
787.0461557384343
 20
576.5429614841336
 30
0.0
 10
787.4068667364968
 20
576.1607310568373
 30
0.0
 10
787.594644973431
 20
575.981057971392
 30
0.0
 10
787.7894985136788
 20
575.8118157369684
 30
0.0
  0
SPLINE
  5
181
330
1F
100
AcDbEntity
  8
1
  6
Continuous
 62
    30
370
    13
100
AcDbSpline
210
0.0
220
0.0
230
1.0
 70
     8
 71
     3
 72
    30
 73
    26
 74
     0
 42
0.000000001
 43
0.0000000001
 40
0.0
 40
0.0
 40
0.0
 40
0.0
 40
0.1250000000000002
 40
0.1250000000000002
 40
0.2500000000000004
 40
0.2500000000000004
 40
0.3750000000000006
 40
0.3750000000000006
 40
0.4062500000000002
 40
0.4218750000000001
 40
0.4218750000000001
 40
0.4374999999999998
 40
0.4374999999999998
 40
0.4999999999999997
 40
0.4999999999999997
 40
0.6249999999999994
 40
0.6249999999999994
 40
0.7499999999999991
 40
0.7499999999999991
 40
0.8749999999999989
 40
0.8749999999999989
 40
0.9062499999999992
 40
0.9062499999999992
 40
0.9374999999999994
 40
1.0
 40
1.0
 40
1.0
 40
1.0
 10
787.7894985136788
 20
575.8118157369684
 30
0.0
 10
788.0504711303511
 20
575.5851450348971
 30
0.0
 10
788.3154643115615
 20
575.3769793271525
 30
0.0
 10
788.8568499508284
 20
574.9958250508602
 30
0.0
 10
789.1332410512382
 20
574.8228382878775
 30
0.0
 10
789.700136938837
 20
574.5101196026349
 30
0.0
 10
789.9906395327631
 20
574.3703874737149
 30
0.0
 10
790.3639172247463
 20
574.2152316022759
 30
0.0
 10
790.4766597345943
 20
574.1701476469088
 30
0.0
 10
790.5905726309279
 20
574.1272209295404
 30
0.0
 10
790.666777928878
 20
574.0990783546467
 30
0.0
 10
790.7050236206165
 20
574.0852409082166
 30
0.0
 10
790.8965574903586
 20
574.0173569178024
 30
0.0
 10
791.0510195854533
 20
573.967121206172
 30
0.0
 10
791.5183059506573
 20
573.8278127766132
 30
0.0
 10
791.8350414807247
 20
573.7501231009012
 30
0.0
 10
792.47964862372
 20
573.621159343363
 30
0.0
 10
792.8075158169762
 20
573.5698879176484
 30
0.0
 10
793.4747836926861
 20
573.4902852735928
 30
0.0
 10
793.8141812267671
 20
573.4619568093738
 30
0.0
 10
794.2457649793707
 20
573.4389540715401
 30
0.0
 10
794.3324513526967
 20
573.4349752016026
 30
0.0
 10
794.5063011703097
 20
573.4282224523428
 30
0.0
 10
794.7678880950746
 20
573.4198955704187
 30
0.0
 10
795.031921017815
 20
573.4167405981447
 30
0.0
 10
795.2090363082685
 20
573.4167405981447
 30
0.0
  0
SPLINE
  5
182
330
1F
100
AcDbEntity
  8
1
  6
Continuous
 62
    30
370
    13
100
AcDbSpline
210
0.0
220
0.0
230
1.0
 70
     8
 71
     3
 72
    27
 73
    23
 74
     0
 42
0.000000001
 43
0.0000000001
 40
0.0
 40
0.0
 40
0.0
 40
0.0
 40
0.1250000000000018
 40
0.1250000000000018
 40
0.2500000000000036
 40
0.2500000000000036
 40
0.3750000000000051
 40
0.3750000000000051
 40
0.5000000000000066
 40
0.5000000000000066
 40
0.5312500000000069
 40
0.5468750000000062
 40
0.5468750000000062
 40
0.5625000000000056
 40
0.5625000000000056
 40
0.6250000000000049
 40
0.6250000000000049
 40
0.7500000000000032
 40
0.7500000000000032
 40
0.8750000000000017
 40
0.8750000000000017
 40
1.0
 40
1.0
 40
1.0
 40
1.0
 10
827.886784999142
 20
573.4167405981447
 30
0.0
 10
828.2413654365886
 20
573.4167405981447
 30
0.0
 10
828.5904583685902
 20
573.4251626745327
 30
0.0
 10
829.2777575610362
 20
573.4617054037883
 30
0.0
 10
829.615961567319
 20
573.4898229064523
 30
0.0
 10
830.2816769368465
 20
573.5689564643694
 30
0.0
 10
830.6091850643106
 20
573.6199692063584
 30
0.0
 10
831.2538925700748
 20
573.7485417782618
 30
0.0
 10
831.5710873038661
 20
573.8260982148024
 30
0.0
 10
831.9615691148595
 20
573.9422595021692
 30
0.0
 10
832.0782642286799
 20
573.9785512934052
 30
0.0
 10
832.1943022456214
 20
574.0170890304089
 30
0.0
 10
832.271517029998
 20
574.0432892428787
 30
0.0
 10
832.3100547401132
 20
574.0566447138516
 30
0.0
 10
832.5019805847858
 20
574.1245681050805
 30
0.0
 10
832.6534068112031
 20
574.1826836506094
 30
0.0
 10
833.1016638728829
 20
574.3687680545487
 30
0.0
 10
833.3924553464668
 20
574.5084778446545
 30
0.0
 10
833.9600588009536
 20
574.8213092967932
 30
0.0
 10
834.2368684323912
 20
574.9944312013117
 30
0.0
 10
834.7792129597012
 20
575.37608772138
 30
0.0
 10
835.0447463181524
 20
575.5846205464501
 30
0.0
 10
835.3063227937319
 20
575.8118157369682
 30
0.0
  0
SPLINE
  5
183
330
1F
100
AcDbEntity
  8
1
  6
Continuous
 62
    30
370
    13
100
AcDbSpline
210
0.0
220
0.0
230
1.0
 70
     8
 71
     3
 72
    28
 73
    24
 74
     0
 42
0.000000001
 43
0.0000000001
 40
0.0
 40
0.0
 40
0.0
 40
0.0
 40
0.0625000000000006
 40
0.0625000000000006
 40
0.0937500000000008
 40
0.0937500000000008
 40
0.1250000000000011
 40
0.1250000000000011
 40
0.2500000000000012
 40
0.2500000000000012
 40
0.3750000000000013
 40
0.3750000000000013
 40
0.5000000000000014
 40
0.5000000000000014
 40
0.5625000000000011
 40
0.5625000000000011
 40
0.6250000000000008
 40
0.6250000000000008
 40
0.7500000000000006
 40
0.7500000000000006
 40
0.8750000000000003
 40
0.8750000000000003
 40
1.0
 40
1.0
 40
1.0
 40
1.0
 10
792.1328671820427
 20
566.9768947116123
 30
0.0
 10
791.9106541468875
 20
566.9768947116123
 30
0.0
 10
791.6911118378378
 20
566.9805504904011
 30
0.0
 10
791.3656964266185
 20
566.9918935262673
 30
0.0
 10
791.2578743125722
 20
566.9966513334938
 30
0.0
 10
791.0435114654422
 20
567.008186325378
 30
0.0
 10
790.9369358002612
 20
567.0149669068153
 30
0.0
 10
790.4081673885483
 20
567.0540103084566
 30
0.0
 10
789.9976534325933
 20
567.101700471932
 30
0.0
 10
789.1998904480079
 20
567.233488559132
 30
0.0
 10
788.8126462282382
 20
567.3175783925196
 30
0.0
 10
788.059583434931
 20
567.5262414681774
 30
0.0
 10
787.6937709308542
 20
567.6508041585996
 30
0.0
 10
787.1595384720008
 20
567.8717172367733
 30
0.0
 10
786.9838418456002
 20
567.9510560381591
 30
0.0
 10
786.6370893711407
 20
568.1217750669364
 30
0.0
 10
786.4670317803254
 20
568.2126628374632
 30
0.0
 10
785.9660950535587
 20
568.5024204994522
 30
0.0
 10
785.6444628700076
 20
568.7183600131199
 30
0.0
 10
785.0218082311753
 20
569.199009271804
 30
0.0
 10
784.7207925915305
 20
569.4637078945833
 30
0.0
 10
784.1349119203306
 20
570.0460146379846
 30
0.0
 10
783.8500559045079
 20
570.3636035332221
 30
0.0
 10
783.570715049562
 20
570.7103941927197
 30
0.0
  0
SPLINE
  5
184
330
1F
100
AcDbEntity
  8
1
  6
Continuous
 62
    30
370
    13
100
AcDbSpline
210
0.0
220
0.0
230
1.0
 70
     8
 71
     3
 72
    28
 73
    24
 74
     0
 42
0.000000001
 43
0.0000000001
 40
0.0
 40
0.0
 40
0.0
 40
0.0
 40
0.1249999999999983
 40
0.1249999999999983
 40
0.2499999999999966
 40
0.2499999999999966
 40
0.3749999999999949
 40
0.3749999999999949
 40
0.4374999999999943
 40
0.4374999999999943
 40
0.4531249999999943
 40
0.4531249999999943
 40
0.4687499999999943
 40
0.4687499999999943
 40
0.4999999999999948
 40
0.4999999999999948
 40
0.6249999999999961
 40
0.6249999999999961
 40
0.7499999999999973
 40
0.7499999999999973
 40
0.8749999999999987
 40
0.8749999999999987
 40
1.0
 40
1.0
 40
1.0
 40
1.0
 10
839.5251062578487
 20
570.7103941927198
 30
0.0
 10
839.245056183214
 20
570.3627230649367
 30
0.0
 10
838.9595594309103
 20
570.0445214289488
 30
0.0
 10
838.3725146699223
 20
569.4613616727364
 30
0.0
 10
838.0709759894503
 20
569.1964234858834
 30
0.0
 10
837.447398379855
 20
568.7155471783128
 30
0.0
 10
837.1253664374728
 20
568.4996205614116
 30
0.0
 10
836.6239396841061
 20
568.2099995209575
 30
0.0
 10
836.4537371405869
 20
568.1191769985402
 30
0.0
 10
836.2368612424076
 20
568.0125772812353
 30
0.0
 10
836.1932799584625
 20
567.9916038528258
 30
0.0
 10
836.1056978639168
 20
567.9503449159674
 30
0.0
 10
836.061708779178
 20
567.9300654978113
 30
0.0
 10
835.9293953968169
 20
567.8703795114274
 30
0.0
 10
835.840631531993
 20
567.8320806440599
 30
0.0
 10
835.3939474625538
 20
567.6478036725844
 30
0.0
 10
835.0274165541321
 20
567.5234311510272
 30
0.0
 10
834.2739785069797
 20
567.3154050692884
 30
0.0
 10
833.8870777776253
 20
567.2317633671257
 30
0.0
 10
833.0912098210736
 20
567.1008189836903
 30
0.0
 10
832.682247487453
 20
567.0535251452585
 30
0.0
 10
831.8407011733519
 20
566.9915593019798
 30
0.0
 10
831.4081213761369
 20
566.9768947116123
 30
0.0
 10
830.9629541253679
 20
566.9768947116123
 30
0.0
  0
SPLINE
  5
185
330
1F
100
AcDbEntity
  8
1
  6
Continuous
 62
    30
370
    18
100
AcDbSpline
210
0.0
220
0.0
230
1.0
 70
     8
 71
     3
 72
     8
 73
     4
 74
     0
 42
0.000000001
 43
0.0000000001
 40
0.0
 40
0.0
 40
0.0
 40
0.0
 40
1.0
 40
1.0
 40
1.0
 40
1.0
 10
803.0331425013177
 20
603.0392060575186
 30
0.0
 10
802.6288166602942
 20
602.8560556742258
 30
0.0
 10
802.3964265466758
 20
602.5600264427735
 30
0.0
 10
802.3382246721116
 20
602.1521386995587
 30
0.0
  0
SPLINE
  5
186
330
1F
100
AcDbEntity
  8
1
  6
Continuous
 62
    30
370
    18
100
AcDbSpline
210
0.0
220
0.0
230
1.0
 70
    24
 71
     3
 72
     8
 73
     4
 74
     0
 42
0.000000001
 43
0.0000000001
 40
0.0
 40
0.0
 40
0.0
 40
0.0
 40
1.0
 40
1.0
 40
1.0
 40
1.0
 10
802.3382246721116
 20
602.1521386995587
 30
0.0
 10
802.3340950674215
 20
602.1502680828306
 30
0.0
 10
802.3299654627313
 20
602.1483974661024
 30
0.0
 10
802.3258358580412
 20
602.1465268493743
 30
0.0
  0
SPLINE
  5
187
330
1F
100
AcDbEntity
  8
1
  6
Continuous
 62
    30
370
    18
100
AcDbSpline
210
0.0
220
0.0
230
1.0
 70
    24
 71
     3
 72
     8
 73
     4
 74
     0
 42
0.000000001
 43
0.0000000001
 40
0.0
 40
0.0
 40
0.0
 40
0.0
 40
1.0
 40
1.0
 40
1.0
 40
1.0
 10
802.3258358580412
 20
602.1465268493743
 30
0.0
 10
802.264833247222
 20
602.281197230515
 30
0.0
 10
802.2038306364028
 20
602.4158676116556
 30
0.0
 10
802.1428280255836
 20
602.5505379927963
 30
0.0
  0
SPLINE
  5
188
330
1F
100
AcDbEntity
  8
1
  6
Continuous
 62
    30
370
    18
100
AcDbSpline
210
0.0
220
0.0
230
1.0
 70
    24
 71
     3
 72
     8
 73
     4
 74
     0
 42
0.000000001
 43
0.0000000001
 40
0.0
 40
0.0
 40
0.0
 40
0.0
 40
1.0
 40
1.0
 40
1.0
 40
1.0
 10
802.1428280255836
 20
602.5505379927963
 30
0.0
 10
801.9787700938034
 20
602.4762234918687
 30
0.0
 10
801.8147121620232
 20
602.4019089909411
 30
0.0
 10
801.650654230243
 20
602.3275944900137
 30
0.0
  0
SPLINE
  5
189
330
1F
100
AcDbEntity
  8
1
  6
Continuous
 62
    30
370
    18
100
AcDbSpline
210
0.0
220
0.0
230
1.0
 70
    24
 71
     3
 72
     8
 73
     4
 74
     0
 42
0.000000001
 43
0.0000000001
 40
0.0
 40
0.0
 40
0.0
 40
0.0
 40
1.0
 40
1.0
 40
1.0
 40
1.0
 10
801.650654230243
 20
602.3275944900137
 30
0.0
 10
802.1163967274429
 20
601.2994135848194
 30
0.0
 10
802.5821392246426
 20
600.271232679625
 30
0.0
 10
803.0478817218423
 20
599.2430517744308
 30
0.0
  0
SPLINE
  5
18A
330
1F
100
AcDbEntity
  8
1
  6
Continuous
 62
    30
370
    18
100
AcDbSpline
210
0.0
220
0.0
230
1.0
 70
     8
 71
     3
 72
    10
 73
     6
 74
     0
 42
0.000000001
 43
0.0000000001
 40
0.0
 40
0.0
 40
0.0
 40
0.0
 40
0.2570789033966885
 40
0.2570789033966885
 40
1.0
 40
1.0
 40
1.0
 40
1.0
 10
803.0392335838449
 20
600.6239366351884
 30
0.0
 10
802.9739682459724
 20
600.7231355205668
 30
0.0
 10
802.912617762263
 20
600.8361547836429
 30
0.0
 10
802.6892285917643
 20
601.3293124424674
 30
0.0
 10
802.6365710013938
 20
601.664305399267
 30
0.0
 10
802.6978412126721
 20
601.9695311322176
 30
0.0
  0
SPLINE
  5
18B
330
1F
100
AcDbEntity
  8
1
  6
Continuous
 62
    30
370
    18
100
AcDbSpline
210
0.0
220
0.0
230
1.0
 70
     8
 71
     3
 72
     8
 73
     4
 74
     0
 42
0.000000001
 43
0.0000000001
 40
0.0
 40
0.0
 40
0.0
 40
0.0
 40
1.0
 40
1.0
 40
1.0
 40
1.0
 10
802.6978412126721
 20
601.9695311322176
 30
0.0
 10
802.7470308064679
 20
602.2187471131147
 30
0.0
 10
802.8619876390883
 20
602.4049534562449
 30
0.0
 10
803.0427117105334
 20
602.5281501616087
 30
0.0
  0
SPLINE
  5
18C
330
1F
100
AcDbEntity
  8
1
  6
Continuous
 62
    30
370
    18
100
AcDbSpline
210
0.0
220
0.0
230
1.0
 70
     8
 71
     3
 72
    10
 73
     6
 74
     0
 42
0.000000001
 43
0.0000000001
 40
0.0
 40
0.0
 40
0.0
 40
0.0
 40
0.1199146986744622
 40
0.1199146986744622
 40
1.0
 40
1.0
 40
1.0
 40
1.0
 10
820.0539677419542
 20
599.2799900765065
 30
0.0
 10
820.1087406572497
 20
599.3827907145602
 30
0.0
 10
820.1639320845679
 20
599.4957548601548
 30
0.0
 10
820.6276778968505
 20
600.5225485267918
 30
0.0
 10
821.0358137697917
 20
601.426214540293
 30
0.0
 10
821.443949642733
 20
602.3298805537943
 30
0.0
  0
SPLINE
  5
18D
330
1F
100
AcDbEntity
  8
1
  6
Continuous
 62
    30
370
    18
100
AcDbSpline
210
0.0
220
0.0
230
1.0
 70
    24
 71
     3
 72
     8
 73
     4
 74
     0
 42
0.000000001
 43
0.0000000001
 40
0.0
 40
0.0
 40
0.0
 40
0.0
 40
1.0
 40
1.0
 40
1.0
 40
1.0
 10
821.443949642733
 20
602.3298805537943
 30
0.0
 10
821.2775559606681
 20
602.4050313613568
 30
0.0
 10
821.1111622786033
 20
602.4801821689194
 30
0.0
 10
820.9447685965383
 20
602.555332976482
 30
0.0
  0
SPLINE
  5
18E
330
1F
100
AcDbEntity
  8
1
  6
Continuous
 62
    30
370
    18
100
AcDbSpline
210
0.0
220
0.0
230
1.0
 70
    24
 71
     3
 72
     8
 73
     4
 74
     0
 42
0.000000001
 43
0.0000000001
 40
0.0
 40
0.0
 40
0.0
 40
0.0
 40
1.0
 40
1.0
 40
1.0
 40
1.0
 10
820.9447685965383
 20
602.555332976482
 30
0.0
 10
820.8882497808002
 20
602.4301929525535
 30
0.0
 10
820.831730965062
 20
602.305052928625
 30
0.0
 10
820.7752121493238
 20
602.1799129046965
 30
0.0
  0
SPLINE
  5
18F
330
1F
100
AcDbEntity
  8
1
  6
Continuous
 62
    30
370
    18
100
AcDbSpline
210
0.0
220
0.0
230
1.0
 70
    24
 71
     3
 72
     8
 73
     4
 74
     0
 42
0.000000001
 43
0.0000000001
 40
0.0
 40
0.0
 40
0.0
 40
0.0
 40
1.0
 40
1.0
 40
1.0
 40
1.0
 10
820.7752121493238
 20
602.1799129046965
 30
0.0
 10
820.77108047776
 20
602.1817789518369
 30
0.0
 10
820.7669488061964
 20
602.1836449989773
 30
0.0
 10
820.7628171346328
 20
602.1855110461177
 30
0.0
  0
SPLINE
  5
190
330
1F
100
AcDbEntity
  8
1
  6
Continuous
 62
    30
370
    18
100
AcDbSpline
210
0.0
220
0.0
230
1.0
 70
     8
 71
     3
 72
     8
 73
     4
 74
     0
 42
0.000000001
 43
0.0000000001
 40
0.0
 40
0.0
 40
0.0
 40
0.0
 40
1.0
 40
1.0
 40
1.0
 40
1.0
 10
820.7628171346328
 20
602.1855110461177
 30
0.0
 10
820.6616718391472
 20
602.5865493080004
 30
0.0
 10
820.4256650051021
 20
602.8718038963785
 30
0.0
 10
820.0552830805035
 20
603.042351870533
 30
0.0
  0
SPLINE
  5
191
330
1F
100
AcDbEntity
  8
1
  6
Continuous
 62
    30
370
    18
100
AcDbSpline
210
0.0
220
0.0
230
1.0
 70
     8
 71
     3
 72
     8
 73
     4
 74
     0
 42
0.000000001
 43
0.0000000001
 40
0.0
 40
0.0
 40
0.0
 40
0.0
 40
1.0
 40
1.0
 40
1.0
 40
1.0
 10
820.0518700935061
 20
602.5010371204805
 30
0.0
 10
820.2121292970968
 20
602.3852023254644
 30
0.0
 10
820.3229957561397
 20
602.2216285752792
 30
0.0
 10
820.3837467284452
 20
602.0100499980682
 30
0.0
  0
SPLINE
  5
192
330
1F
100
AcDbEntity
  8
1
  6
Continuous
 62
    30
370
    18
100
AcDbSpline
210
0.0
220
0.0
230
1.0
 70
     8
 71
     3
 72
    10
 73
     6
 74
     0
 42
0.000000001
 43
0.0000000001
 40
0.0
 40
0.0
 40
0.0
 40
0.0
 40
0.7375039538880097
 40
0.7375039538880097
 40
1.0
 40
1.0
 40
1.0
 40
1.0
 10
820.3837467284452
 20
602.0100499980682
 30
0.0
 10
820.4638665035956
 20
601.7338646928009
 30
0.0
 10
820.4199616605778
 20
601.4083612602209
 30
0.0
 10
820.1907340343225
 20
600.9008214213196
 30
0.0
 10
820.1270291669841
 20
600.7836042348588
 30
0.0
 10
820.0598924142113
 20
600.682434451392
 30
0.0
  0
SPLINE
  5
193
330
1F
100
AcDbEntity
  8
1
  6
Continuous
 62
    30
370
    18
100
AcDbSpline
210
0.0
220
0.0
230
1.0
 70
     8
 71
     3
 72
    70
 73
    66
 74
     0
 42
0.000000001
 43
0.0000000001
 40
0.0
 40
0.0
 40
0.0
 40
0.0
 40
0.0312499999999962
 40
0.0312499999999962
 40
0.0624999999999924
 40
0.0624999999999924
 40
0.0937499999999886
 40
0.0937499999999886
 40
0.1093749999999863
 40
0.1093749999999863
 40
0.124999999999984
 40
0.124999999999984
 40
0.1328124999999833
 40
0.1328124999999833
 40
0.1406249999999826
 40
0.156249999999982
 40
0.156249999999982
 40
0.1874999999999809
 40
0.1874999999999809
 40
0.2187499999999798
 40
0.2187499999999798
 40
0.2499999999999787
 40
0.2499999999999787
 40
0.2656249999999785
 40
0.2656249999999785
 40
0.2734374999999783
 40
0.2734374999999783
 40
0.2812499999999781
 40
0.3124999999999789
 40
0.3124999999999789
 40
0.3437499999999797
 40
0.3437499999999797
 40
0.3749999999999804
 40
0.3749999999999804
 40
0.4374999999999824
 40
0.4374999999999824
 40
0.4687499999999834
 40
0.4687499999999834
 40
0.484374999999984
 40
0.484374999999984
 40
0.4999999999999845
 40
0.4999999999999845
 40
0.5624999999999865
 40
0.5624999999999865
 40
0.6249999999999885
 40
0.6249999999999885
 40
0.6874999999999905
 40
0.6874999999999905
 40
0.7499999999999923
 40
0.7499999999999923
 40
0.7812499999999932
 40
0.7968749999999937
 40
0.7968749999999937
 40
0.8124999999999941
 40
0.8124999999999941
 40
0.874999999999996
 40
0.874999999999996
 40
0.9374999999999979
 40
0.9374999999999979
 40
0.968749999999999
 40
0.9843749999999996
 40
0.9921874999999999
 40
0.9960937499999999
 40
0.9960937499999999
 40
1.0
 40
1.0
 40
1.0
 40
1.0
 10
801.1386006114903
 20
582.5396914178168
 30
0.0
 10
801.1673515155424
 20
582.322359256739
 30
0.0
 10
801.2025725117055
 20
582.1083870430682
 30
0.0
 10
801.285208890733
 20
581.6866920837044
 30
0.0
 10
801.3326259332819
 20
581.4789704628702
 30
0.0
 10
801.4391216019798
 20
581.0694350192744
 30
0.0
 10
801.4982012852948
 20
580.8676219175322
 30
0.0
 10
801.5952935503169
 20
580.569150633284
 30
0.0
 10
801.6291262973364
 20
580.4702260596991
 30
0.0
 10
801.6991041226627
 20
580.275071271317
 30
0.0
 10
801.7352860646746
 20
580.1787124956693
 30
0.0
 10
801.7912794508845
 20
580.0359209131838
 30
0.0
 10
801.8102456447523
 20
579.9885788438794
 30
0.0
 10
801.8486646339982
 20
579.8946514341088
 30
0.0
 10
801.9069935227692
 20
579.7549629063315
 30
0.0
 10
801.9673575581568
 20
579.6187555242477
 30
0.0
 10
802.0906455892392
 20
579.3506886110691
 30
0.0
 10
802.1762453979485
 20
579.1777639142722
 30
0.0
 10
802.3536005177211
 20
578.8422287201819
 30
0.0
 10
802.4453575807064
 20
578.6796216914535
 30
0.0
 10
802.634527294796
 20
578.3637698628801
 30
0.0
 10
802.7319410750162
 20
578.2105272868042
 30
0.0
 10
802.8820131223963
 20
577.9871312123103
 30
0.0
 10
802.9326964842177
 20
577.9137452934739
 30
0.0
 10
803.0096803325939
 20
577.8052276973023
 30
0.0
 10
803.0355054898545
 20
577.76931079701
 30
0.0
 10
803.0873091493936
 20
577.6982072486586
 30
0.0
 10
803.2173022485791
 20
577.5221344182318
 30
0.0
 10
803.3496463230324
 20
577.3542124110294
 30
0.0
 10
803.5641385279466
 20
577.0948862398177
 30
0.0
 10
803.6727560769194
 20
576.969900221596
 30
0.0
 10
803.8925250089549
 20
576.7284361071214
 30
0.0
 10
804.0036767948458
 20
576.6119597015223
 30
0.0
 10
804.3406855931225
 20
576.2742893692921
 30
0.0
 10
804.5700838363693
 20
576.0648068997242
 30
0.0
 10
804.9205558972587
 20
575.7711036429099
 30
0.0
 10
805.0384457397835
 20
575.6766358281103
 30
0.0
 10
805.2168155508465
 20
575.5398169492007
 30
0.0
 10
805.2765281481559
 20
575.4950250446392
 30
0.0
 10
805.3964564079255
 20
575.4070319041208
 30
0.0
 10
805.4566534305876
 20
575.363846199269
 30
0.0
 10
805.7578991262395
 20
575.1524698916999
 30
0.0
 10
806.000496364044
 20
574.9973134944822
 30
0.0
 10
806.4886791656444
 20
574.7116245256066
 30
0.0
 10
806.7342656297657
 20
574.5811060289125
 30
0.0
 10
807.2282990205499
 20
574.3424935486138
 30
0.0
 10
807.4767464322802
 20
574.2344074941756
 30
0.0
 10
807.9764360827941
 20
574.0391638789608
 30
0.0
 10
808.2276785608976
 20
573.9520108893282
 30
0.0
 10
808.6066281071694
 20
573.8362494488299
 30
0.0
 10
808.7966249162005
 20
573.7821163085242
 30
0.0
 10
808.9874078781969
 20
573.7335130158383
 30
0.0
 10
809.1147719097396
 20
573.7023324259086
 30
0.0
 10
809.1785604672893
 20
573.6873486004098
 30
0.0
 10
809.4977216536454
 20
573.6155163868632
 30
0.0
 10
809.7532880041804
 20
573.5680100296298
 30
0.0
 10
810.2649837751892
 20
573.4922025528266
 30
0.0
 10
810.52111301632
 20
573.4639030608512
 30
0.0
 10
810.9057980793655
 20
573.4356040694001
 30
0.0
 10
811.0982634823919
 20
573.4249962535331
 30
0.0
 10
811.323037666361
 20
573.4188047419661
 30
0.0
 10
811.4354846921922
 20
573.4172564401784
 30
0.0
 10
811.4836893496647
 20
573.416924701458
 30
0.0
 10
811.515828719644
 20
573.4167773129844
 30
0.0
 10
811.5319104886923
 20
573.4167405981447
 30
0.0
 10
811.5479106537053
 20
573.4167405981447
 30
0.0
  0
SPLINE
  5
194
330
1F
100
AcDbEntity
  8
1
  6
Continuous
 62
    30
370
    13
100
AcDbSpline
210
0.0
220
0.0
230
1.0
 70
     8
 71
     3
 72
    72
 73
    68
 74
     0
 42
0.000000001
 43
0.0000000001
 40
0.0
 40
0.0
 40
0.0
 40
0.0
 40
0.0019531250000001
 40
0.0019531250000001
 40
0.0039062500000001
 40
0.0078125000000001
 40
0.0156250000000001
 40
0.03125
 40
0.0625000000000002
 40
0.0625000000000002
 40
0.1250000000000003
 40
0.1250000000000003
 40
0.1875000000000002
 40
0.1875000000000002
 40
0.2031250000000002
 40
0.2031250000000002
 40
0.2187500000000001
 40
0.25
 40
0.25
 40
0.3125
 40
0.3125
 40
0.375
 40
0.375
 40
0.4375
 40
0.4375
 40
0.5
 40
0.5
 40
0.5156249999999998
 40
0.5156249999999998
 40
0.5312499999999997
 40
0.5312499999999997
 40
0.5625
 40
0.5625
 40
0.6250000000000011
 40
0.6250000000000011
 40
0.6875000000000022
 40
0.6875000000000022
 40
0.7187500000000031
 40
0.7187500000000031
 40
0.7343750000000032
 40
0.7343750000000032
 40
0.7421875000000033
 40
0.7421875000000033
 40
0.7500000000000033
 40
0.7500000000000033
 40
0.7812500000000036
 40
0.7812500000000036
 40
0.8125000000000039
 40
0.8125000000000039
 40
0.8437500000000042
 40
0.8437500000000042
 40
0.8593750000000043
 40
0.8671875000000048
 40
0.8671875000000048
 40
0.8750000000000053
 40
0.8750000000000053
 40
0.8906250000000054
 40
0.8906250000000054
 40
0.8984375000000056
 40
0.8984375000000056
 40
0.9062500000000057
 40
0.9062500000000057
 40
0.9375000000000038
 40
0.9375000000000038
 40
0.9687500000000019
 40
0.9687500000000019
 40
1.0
 40
1.0
 40
1.0
 40
1.0
 10
811.5479106537053
 20
573.4167405981447
 30
0.0
 10
811.5364180062968
 20
573.4167405981447
 30
0.0
 10
811.5249154049925
 20
573.4167489095296
 30
0.0
 10
811.5017962804624
 20
573.4167825153286
 30
0.0
 10
811.4671189479096
 20
573.4168582169268
 30
0.0
 10
811.3862146309552
 20
573.4172118669774
 30
0.0
 10
811.2244436695422
 20
573.4186269580372
 30
0.0
 10
810.9010511590625
 20
573.4242867886892
 30
0.0
 10
810.6241094541007
 20
573.4339857001787
 30
0.0
 10
810.0705517155843
 20
573.4598625536782
 30
0.0
 10
809.7019470893621
 20
573.4857431573785
 30
0.0
 10
808.9655609695915
 20
573.5550655596481
 30
0.0
 10
808.5977795370852
 20
573.598506039041
 30
0.0
 10
808.1385462236507
 20
573.6641670201213
 30
0.0
 10
808.0467327942715
 20
573.6778673128761
 30
0.0
 10
807.8633927585546
 20
573.7063794443845
 30
0.0
 10
807.5887252666981
 20
573.750827567048
 30
0.0
 10
807.3150874262324
 20
573.8003469705963
 30
0.0
 10
806.7691954830426
 20
573.9062616508727
 30
0.0
 10
806.4071102332794
 20
573.9860264830771
 30
0.0
 10
805.6867346017683
 20
574.1647588010085
 30
0.0
 10
805.328443665246
 20
574.2637224496495
 30
0.0
 10
804.6158445565825
 20
574.4821937544222
 30
0.0
 10
804.2615354079313
 20
574.6016948920442
 30
0.0
 10
803.5571890518323
 20
574.8631862171769
 30
0.0
 10
803.2071501303045
 20
575.0051650842382
 30
0.0
 10
802.7725397720319
 20
575.1984482827304
 30
0.0
 10
802.6857650400334
 20
575.2378980521772
 30
0.0
 10
802.5125188788885
 20
575.3184397175015
 30
0.0
 10
802.4262271399888
 20
575.3594481567682
 30
0.0
 10
802.1683713596678
 20
575.4847384249578
 30
0.0
 10
801.9978242084558
 20
575.5712839067772
 30
0.0
 10
801.4904545252481
 20
575.8404761345515
 30
0.0
 10
801.157884417075
 20
576.0326316658524
 30
0.0
 10
800.5055610841578
 20
576.4459364423939
 30
0.0
 10
800.1857946761313
 20
576.6670528148903
 30
0.0
 10
799.7174208612075
 20
577.0245557522182
 30
0.0
 10
799.5631826482169
 20
577.1480454948185
 30
0.0
 10
799.3349522481782
 20
577.3404940005757
 30
0.0
 10
799.2593973310403
 20
577.405847619744
 30
0.0
 10
799.1468926769818
 20
577.5057947073004
 30
0.0
 10
799.1095350706679
 20
577.5394254985906
 30
0.0
 10
799.0353032766006
 20
577.6071612589305
 30
0.0
 10
798.9984043772059
 20
577.6412880236724
 30
0.0
 10
798.8150154955763
 20
577.8132423752617
 30
0.0
 10
798.6718366378946
 20
577.9550243097119
 30
0.0
 10
798.3931578274747
 20
578.2478024844947
 30
0.0
 10
798.257656058017
 20
578.3987963869693
 30
0.0
 10
797.9951172120594
 20
578.7109931768609
 30
0.0
 10
797.8680773006646
 20
578.8721924061882
 30
0.0
 10
797.6846365628787
 20
579.1226249035492
 30
0.0
 10
797.5946991937503
 20
579.2500036701008
 30
0.0
 10
797.5076167784217
 20
579.3808553866132
 30
0.0
 10
797.450219304216
 20
579.4688909203126
 30
0.0
 10
797.4218315713728
 20
579.5133374048831
 30
0.0
 10
797.3378227877436
 20
579.6477118274219
 30
0.0
 10
797.2834158101617
 20
579.7385721989025
 30
0.0
 10
797.2043303645072
 20
579.8768852184353
 30
0.0
 10
797.178370546732
 20
579.9233627048062
 30
0.0
 10
797.1274612052104
 20
580.0167422955268
 30
0.0
 10
797.10250073823
 20
580.0636617953879
 30
0.0
 10
796.9802038884553
 20
580.2994248716967
 30
0.0
 10
796.8903720633
 20
580.4917593531267
 30
0.0
 10
796.7277828609107
 20
580.8844013451856
 30
0.0
 10
796.6550220860461
 20
581.084707138231
 30
0.0
 10
796.5279891288413
 20
581.493989340366
 30
0.0
 10
796.4737115893505
 20
581.7029630293205
 30
0.0
 10
796.4296270209645
 20
581.9167405981447
 30
0.0
  0
SPLINE
  5
195
330
1F
100
AcDbEntity
  8
1
  6
Continuous
 62
    30
370
    18
100
AcDbSpline
210
0.0
220
0.0
230
1.0
 70
     8
 71
     3
 72
    70
 73
    66
 74
     0
 42
0.000000001
 43
0.0000000001
 40
0.0
 40
0.0
 40
0.0
 40
0.0
 40
0.00390625
 40
0.00390625
 40
0.0078125
 40
0.0156250000000001
 40
0.0312500000000003
 40
0.0625000000000007
 40
0.0625000000000007
 40
0.1250000000000019
 40
0.1250000000000019
 40
0.187500000000003
 40
0.187500000000003
 40
0.2031250000000033
 40
0.2031250000000033
 40
0.2187500000000037
 40
0.2500000000000042
 40
0.2500000000000042
 40
0.3125000000000054
 40
0.3125000000000054
 40
0.3750000000000067
 40
0.3750000000000067
 40
0.437500000000008
 40
0.437500000000008
 40
0.5000000000000092
 40
0.5000000000000092
 40
0.5156250000000095
 40
0.5156250000000095
 40
0.5312500000000098
 40
0.5312500000000098
 40
0.5625000000000104
 40
0.5625000000000104
 40
0.6250000000000113
 40
0.6250000000000113
 40
0.6562500000000121
 40
0.6562500000000121
 40
0.6875000000000129
 40
0.6875000000000129
 40
0.7187500000000135
 40
0.7265625000000133
 40
0.7265625000000133
 40
0.7343750000000132
 40
0.7343750000000132
 40
0.7500000000000129
 40
0.7500000000000129
 40
0.7812500000000125
 40
0.7812500000000125
 40
0.8125000000000122
 40
0.8125000000000122
 40
0.843750000000012
 40
0.843750000000012
 40
0.8593750000000119
 40
0.8671875000000113
 40
0.8671875000000113
 40
0.8750000000000109
 40
0.8750000000000109
 40
0.8906250000000098
 40
0.8906250000000098
 40
0.9062500000000088
 40
0.9062500000000088
 40
0.9375000000000059
 40
0.9375000000000059
 40
0.9687500000000029
 40
0.9687500000000029
 40
1.0
 40
1.0
 40
1.0
 40
1.0
 10
811.5479106537053
 20
573.4167405981447
 30
0.0
 10
811.5639108187182
 20
573.4167405981447
 30
0.0
 10
811.5799925877666
 20
573.4167773129844
 30
0.0
 10
811.612131957746
 20
573.416924701458
 30
0.0
 10
811.6603366152184
 20
573.4172564401784
 30
0.0
 10
811.7727836410497
 20
573.4188047419661
 30
0.0
 10
811.9975578250188
 20
573.4249962535331
 30
0.0
 10
812.1900232280452
 20
573.4356040694001
 30
0.0
 10
812.5747082910906
 20
573.4639030608512
 30
0.0
 10
812.8308375322214
 20
573.4922025528266
 30
0.0
 10
813.3425333032302
 20
573.5680100296298
 30
0.0
 10
813.5980996537652
 20
573.6155163868632
 30
0.0
 10
813.9172608401212
 20
573.6873486004098
 30
0.0
 10
813.981049397671
 20
573.7023324259086
 30
0.0
 10
814.1084134292137
 20
573.7335130158384
 30
0.0
 10
814.2991963912101
 20
573.7821163085242
 30
0.0
 10
814.4891932002412
 20
573.8362494488299
 30
0.0
 10
814.868142746513
 20
573.9520108893282
 30
0.0
 10
815.1193852246165
 20
574.0391638789608
 30
0.0
 10
815.6190748751304
 20
574.2344074941756
 30
0.0
 10
815.8675222868607
 20
574.3424935486138
 30
0.0
 10
816.3615556776449
 20
574.5811060289125
 30
0.0
 10
816.6071421417662
 20
574.7116245256066
 30
0.0
 10
817.0953249433667
 20
574.9973134944822
 30
0.0
 10
817.337922181171
 20
575.1524698916999
 30
0.0
 10
817.6391678768231
 20
575.363846199269
 30
0.0
 10
817.6993648994852
 20
575.4070319041208
 30
0.0
 10
817.8192931592548
 20
575.4950250446392
 30
0.0
 10
817.8790057565642
 20
575.5398169492007
 30
0.0
 10
818.0573755676271
 20
575.6766358281103
 30
0.0
 10
818.1752654101518
 20
575.7711036429099
 30
0.0
 10
818.5257374710412
 20
576.0648068997242
 30
0.0
 10
818.7551357142881
 20
576.2742893692922
 30
0.0
 10
819.0921445125648
 20
576.6119597015223
 30
0.0
 10
819.2032962984558
 20
576.7284361071214
 30
0.0
 10
819.4230652304911
 20
576.969900221596
 30
0.0
 10
819.5316827794641
 20
577.0948862398177
 30
0.0
 10
819.7461749843783
 20
577.3542124110294
 30
0.0
 10
819.8785190588316
 20
577.5221344182318
 30
0.0
 10
820.0085121580171
 20
577.6982072486586
 30
0.0
 10
820.0603158175562
 20
577.76931079701
 30
0.0
 10
820.0861409748168
 20
577.8052276973021
 30
0.0
 10
820.1631248231929
 20
577.9137452934739
 30
0.0
 10
820.2138081850144
 20
577.9871312123103
 30
0.0
 10
820.3638802323945
 20
578.2105272868042
 30
0.0
 10
820.4612940126145
 20
578.36376986288
 30
0.0
 10
820.6504637267043
 20
578.6796216914535
 30
0.0
 10
820.7422207896896
 20
578.8422287201819
 30
0.0
 10
820.9195759094622
 20
579.1777639142722
 30
0.0
 10
821.0051757181715
 20
579.3506886110691
 30
0.0
 10
821.1284637492538
 20
579.6187555242477
 30
0.0
 10
821.1888277846414
 20
579.7549629063313
 30
0.0
 10
821.2471566734125
 20
579.8946514341088
 30
0.0
 10
821.2855756626584
 20
579.9885788438794
 30
0.0
 10
821.3045418565262
 20
580.0359209131838
 30
0.0
 10
821.3605352427361
 20
580.1787124956693
 30
0.0
 10
821.396717184748
 20
580.275071271317
 30
0.0
 10
821.4666950100743
 20
580.4702260596991
 30
0.0
 10
821.5005277570937
 20
580.569150633284
 30
0.0
 10
821.5976200221158
 20
580.8676219175322
 30
0.0
 10
821.6566997054309
 20
581.0694350192744
 30
0.0
 10
821.7631953741288
 20
581.4789704628702
 30
0.0
 10
821.8106124166777
 20
581.6866920837044
 30
0.0
 10
821.8932487957051
 20
582.1083870430682
 30
0.0
 10
821.9284697918683
 20
582.322359256739
 30
0.0
 10
821.9572206959203
 20
582.5396914178168
 30
0.0
  0
SPLINE
  5
196
330
1F
100
AcDbEntity
  8
1
  6
Continuous
 62
    30
370
    13
100
AcDbSpline
210
0.0
220
0.0
230
1.0
 70
     8
 71
     3
 72
    72
 73
    68
 74
     0
 42
0.000000001
 43
0.0000000001
 40
0.0
 40
0.0
 40
0.0
 40
0.0
 40
0.0312499999999983
 40
0.0312499999999983
 40
0.0624999999999966
 40
0.0624999999999966
 40
0.0937499999999949
 40
0.0937499999999949
 40
0.101562499999995
 40
0.101562499999995
 40
0.1093749999999952
 40
0.1093749999999952
 40
0.1249999999999954
 40
0.1249999999999954
 40
0.1328124999999959
 40
0.1328124999999959
 40
0.1406249999999964
 40
0.1562499999999963
 40
0.1562499999999963
 40
0.1874999999999964
 40
0.1874999999999964
 40
0.2187499999999965
 40
0.2187499999999965
 40
0.2499999999999967
 40
0.2499999999999967
 40
0.2578124999999967
 40
0.2578124999999967
 40
0.2656249999999967
 40
0.2656249999999967
 40
0.2812499999999969
 40
0.2812499999999969
 40
0.3124999999999967
 40
0.3124999999999967
 40
0.3749999999999957
 40
0.3749999999999957
 40
0.4374999999999946
 40
0.4374999999999946
 40
0.4687499999999943
 40
0.4687499999999943
 40
0.4843749999999939
 40
0.4843749999999939
 40
0.4999999999999937
 40
0.4999999999999937
 40
0.5624999999999946
 40
0.5624999999999946
 40
0.6249999999999956
 40
0.6249999999999956
 40
0.6874999999999967
 40
0.6874999999999967
 40
0.7499999999999977
 40
0.7499999999999977
 40
0.7812499999999982
 40
0.7968749999999984
 40
0.7968749999999984
 40
0.8124999999999987
 40
0.8124999999999987
 40
0.8749999999999991
 40
0.8749999999999991
 40
0.9374999999999996
 40
0.9374999999999996
 40
0.9687499999999997
 40
0.9843749999999999
 40
0.9921874999999999
 40
0.9960937499999999
 40
0.9980468749999999
 40
0.9980468749999999
 40
1.0
 40
1.0
 40
1.0
 40
1.0
 10
826.6661942864462
 20
581.9167405981447
 30
0.0
 10
826.6221097180602
 20
581.7029630293205
 30
0.0
 10
826.5678321785692
 20
581.493989340366
 30
0.0
 10
826.4407992213645
 20
581.084707138231
 30
0.0
 10
826.3680384465
 20
580.8844013451857
 30
0.0
 10
826.2054492441106
 20
580.4917593531267
 30
0.0
 10
826.1156174189554
 20
580.2994248716967
 30
0.0
 10
825.9933205691807
 20
580.0636617953879
 30
0.0
 10
825.9683601022003
 20
580.0167422955268
 30
0.0
 10
825.9174507606787
 20
579.9233627048062
 30
0.0
 10
825.8914909429034
 20
579.8768852184353
 30
0.0
 10
825.8124054972488
 20
579.7385721989025
 30
0.0
 10
825.7579985196671
 20
579.6477118274219
 30
0.0
 10
825.6739897360379
 20
579.5133374048831
 30
0.0
 10
825.6456020031945
 20
579.4688909203126
 30
0.0
 10
825.588204528989
 20
579.3808553866132
 30
0.0
 10
825.5011221136604
 20
579.2500036701008
 30
0.0
 10
825.411184744532
 20
579.1226249035492
 30
0.0
 10
825.2277440067461
 20
578.8721924061882
 30
0.0
 10
825.1007040953513
 20
578.7109931768609
 30
0.0
 10
824.8381652493936
 20
578.3987963869693
 30
0.0
 10
824.7026634799358
 20
578.2478024844947
 30
0.0
 10
824.4239846695161
 20
577.9550243097119
 30
0.0
 10
824.2808058118344
 20
577.8132423752617
 30
0.0
 10
824.0974169302046
 20
577.6412880236724
 30
0.0
 10
824.06051803081
 20
577.6071612589305
 30
0.0
 10
823.9862862367428
 20
577.5394254985906
 30
0.0
 10
823.9489286304289
 20
577.5057947073004
 30
0.0
 10
823.8364239763704
 20
577.405847619744
 30
0.0
 10
823.7608690592324
 20
577.3404940005757
 30
0.0
 10
823.5326386591938
 20
577.1480454948185
 30
0.0
 10
823.378400446203
 20
577.0245557522182
 30
0.0
 10
822.9100266312794
 20
576.6670528148903
 30
0.0
 10
822.5902602232528
 20
576.4459364423939
 30
0.0
 10
821.9379368903357
 20
576.0326316658525
 30
0.0
 10
821.6053667821626
 20
575.8404761345515
 30
0.0
 10
821.0979970989548
 20
575.5712839067772
 30
0.0
 10
820.9274499477427
 20
575.4847384249578
 30
0.0
 10
820.6695941674219
 20
575.3594481567682
 30
0.0
 10
820.5833024285222
 20
575.3184397175015
 30
0.0
 10
820.4100562673772
 20
575.2378980521772
 30
0.0
 10
820.3232815353787
 20
575.1984482827303
 30
0.0
 10
819.8886711771062
 20
575.0051650842382
 30
0.0
 10
819.5386322555782
 20
574.8631862171769
 30
0.0
 10
818.8342858994794
 20
574.6016948920442
 30
0.0
 10
818.4799767508282
 20
574.4821937544222
 30
0.0
 10
817.7673776421645
 20
574.2637224496495
 30
0.0
 10
817.4090867056424
 20
574.1647588010085
 30
0.0
 10
816.6887110741312
 20
573.9860264830771
 30
0.0
 10
816.326625824368
 20
573.9062616508727
 30
0.0
 10
815.7807338811782
 20
573.8003469705963
 30
0.0
 10
815.5070960407126
 20
573.750827567048
 30
0.0
 10
815.2324285488561
 20
573.7063794443845
 30
0.0
 10
815.049088513139
 20
573.6778673128761
 30
0.0
 10
814.9572750837599
 20
573.6641670201213
 30
0.0
 10
814.4980417703254
 20
573.598506039041
 30
0.0
 10
814.1302603378191
 20
573.5550655596481
 30
0.0
 10
813.3938742180486
 20
573.4857431573785
 30
0.0
 10
813.0252695918263
 20
573.4598625536784
 30
0.0
 10
812.4717118533099
 20
573.4339857001787
 30
0.0
 10
812.1947701483481
 20
573.4242867886892
 30
0.0
 10
811.8713776378684
 20
573.4186269580371
 30
0.0
 10
811.7096066764553
 20
573.4172118669774
 30
0.0
 10
811.628702359501
 20
573.4168582169268
 30
0.0
 10
811.5940250269482
 20
573.4167825153286
 30
0.0
 10
811.5709059024182
 20
573.4167489095296
 30
0.0
 10
811.5594033011138
 20
573.4167405981447
 30
0.0
 10
811.5479106537053
 20
573.4167405981447
 30
0.0
  0
SPLINE
  5
197
330
1F
100
AcDbEntity
  8
1
  6
Continuous
 62
    30
370
    18
100
AcDbSpline
210
0.0
220
0.0
230
1.0
 70
     8
 71
     3
 72
    21
 73
    17
 74
     0
 42
0.000000001
 43
0.0000000001
 40
0.0
 40
0.0
 40
0.0
 40
0.0
 40
0.0567204760623843
 40
0.1176604068661617
 40
0.1785737584372563
 40
0.2444782791399851
 40
0.3129649423288945
 40
0.383917689201943
 40
0.4571144110357788
 40
0.5322763640445022
 40
0.6090822065127559
 40
0.6868794863445814
 40
0.7681878197486017
 40
0.8518873700816444
 40
0.937900670982732
 40
1.0
 40
1.0
 40
1.0
 40
1.0
 10
390.7101146618853
 20
120.2203029552945
 30
0.0
 10
390.8695112364011
 20
120.3342458661056
 30
0.0
 10
391.2087346350007
 20
120.5757200898007
 30
0.0
 10
391.7535563128914
 20
120.9586664503885
 30
0.0
 10
392.3494982138666
 20
121.378065505946
 30
0.0
 10
392.9882773850513
 20
121.8302912373745
 30
0.0
 10
393.675791189418
 20
122.3231782193831
 30
0.0
 10
394.3994948934134
 20
122.8517950971528
 30
0.0
 10
395.1534017016945
 20
123.4163626522377
 30
0.0
 10
395.9303174094705
 20
124.0165430805628
 30
0.0
 10
396.7213400772757
 20
124.6508796879678
 30
0.0
 10
397.5263716764802
 20
125.3251208802731
 30
0.0
 10
398.3442051839731
 20
126.0416940991319
 30
0.0
 10
399.1744671183612
 20
126.8062805404458
 30
0.0
 10
399.9259284798721
 20
127.5323567763606
 30
0.0
 10
400.3917433238445
 20
128.0109002755731
 30
0.0
 10
400.5849038283343
 20
128.2138866908532
 30
0.0
  0
SPLINE
  5
198
330
1F
100
AcDbEntity
  8
1
  6
Continuous
 62
    30
370
    18
100
AcDbSpline
210
0.0
220
0.0
230
1.0
 70
     8
 71
     3
 72
    21
 73
    17
 74
     0
 42
0.000000001
 43
0.0000000001
 40
0.0
 40
0.0
 40
0.0
 40
0.0
 40
0.0567204760623427
 40
0.1176604068661052
 40
0.1785737584371929
 40
0.244478279139927
 40
0.3129649423288297
 40
0.383917689201882
 40
0.4571144110357097
 40
0.5322763640444335
 40
0.6090822065126947
 40
0.6868794863445309
 40
0.7681878197485268
 40
0.851887370081557
 40
0.937900670982637
 40
1.0
 40
1.0
 40
1.0
 40
1.0
 10
369.617675009597
 20
175.4616292228292
 30
0.0
 10
369.4582784350812
 20
175.3476863120182
 30
0.0
 10
369.1190550364818
 20
175.1062120883232
 30
0.0
 10
368.5742333585914
 20
174.7232657277355
 30
0.0
 10
367.9782914576161
 20
174.3038666721781
 30
0.0
 10
367.3395122864315
 20
173.8516409407496
 30
0.0
 10
366.6519984820648
 20
173.358753958741
 30
0.0
 10
365.9282947780695
 20
172.8301370809714
 30
0.0
 10
365.1743879697884
 20
172.2655695258865
 30
0.0
 10
364.3974722620123
 20
171.6653890975614
 30
0.0
 10
363.6064495942072
 20
171.0310524901564
 30
0.0
 10
362.8014179950026
 20
170.3568112978511
 30
0.0
 10
361.9835844875099
 20
169.6402380789924
 30
0.0
 10
361.1533225531218
 20
168.8756516376787
 30
0.0
 10
360.4018611916107
 20
168.1495754017637
 30
0.0
 10
359.936046347638
 20
167.6710319025509
 30
0.0
 10
359.7428858431479
 20
167.4680454872705
 30
0.0
  0
SPLINE
  5
199
330
1F
100
AcDbEntity
  8
1
  6
Continuous
 62
    30
370
    18
100
AcDbSpline
210
0.0
220
0.0
230
1.0
 70
     8
 71
     3
 72
    21
 73
    17
 74
     0
 42
0.000000001
 43
0.0000000001
 40
0.0
 40
0.0
 40
0.0
 40
0.0
 40
0.0796224110385708
 40
0.1677524810109519
 40
0.253973688036977
 40
0.3380574262101868
 40
0.4199054224396275
 40
0.4982836136530314
 40
0.5737955086428813
 40
0.6479020980678071
 40
0.7202144397396822
 40
0.790391061314977
 40
0.8581519212739579
 40
0.9145884719375644
 40
0.9720098793200725
 40
1.0
 40
1.0
 40
1.0
 40
1.0
 10
359.7414617002739
 20
128.2122909624934
 30
0.0
 10
359.9901299482249
 20
127.9528941724501
 30
0.0
 10
360.5207098888818
 20
127.4139441004382
 30
0.0
 10
361.3475547017736
 20
126.6226835172367
 30
0.0
 10
362.2068613103717
 20
125.8418516991601
 30
0.0
 10
363.0599175508612
 20
125.1046857269303
 30
0.0
 10
363.896793675942
 20
124.4146310552241
 30
0.0
 10
364.7097484216949
 20
123.7727244072367
 30
0.0
 10
365.4958329362477
 20
123.1736627692213
 30
0.0
 10
366.256080931688
 20
122.6108905246972
 30
0.0
 10
366.9883469104367
 20
122.0810365073971
 30
0.0
 10
367.6847340033341
 20
121.5853011053571
 30
0.0
 10
368.310674531992
 20
121.1440412817606
 30
0.0
 10
368.8748600073247
 20
120.7473378147717
 30
0.0
 10
369.298521621731
 20
120.4487748314879
 30
0.0
 10
369.5372306782174
 20
120.2774972594192
 30
0.0
 10
369.6140739757832
 20
120.2221335542061
 30
0.0
  0
SPLINE
  5
19A
330
1F
100
AcDbEntity
  8
1
  6
Continuous
 62
    30
370
    18
100
AcDbSpline
210
0.0
220
0.0
230
1.0
 70
     8
 71
     3
 72
    21
 73
    17
 74
     0
 42
0.000000001
 43
0.0000000001
 40
0.0
 40
0.0
 40
0.0
 40
0.0
 40
0.0796224110386343
 40
0.1677524810110247
 40
0.2539736880370514
 40
0.3380574262102548
 40
0.4199054224396838
 40
0.4982836136530773
 40
0.5737955086429289
 40
0.6479020980678475
 40
0.720214439739717
 40
0.7903910613150148
 40
0.8581519212739996
 40
0.9145884719376032
 40
0.9720098793200902
 40
1.0
 40
1.0
 40
1.0
 40
1.0
 10
400.5863279712082
 20
167.4696412156303
 30
0.0
 10
400.337659723257
 20
167.7290380056738
 30
0.0
 10
399.8070797825998
 20
168.267988077686
 30
0.0
 10
398.9802349697078
 20
169.0592486608876
 30
0.0
 10
398.1209283611097
 20
169.8400804789642
 30
0.0
 10
397.2678721206202
 20
170.577246451194
 30
0.0
 10
396.4309959955395
 20
171.2673011229
 30
0.0
 10
395.6180412497866
 20
171.9092077708874
 30
0.0
 10
394.831956735234
 20
172.5082694089027
 30
0.0
 10
394.0717087397936
 20
173.0710416534268
 30
0.0
 10
393.3394427610449
 20
173.6008956707269
 30
0.0
 10
392.6430556681476
 20
174.0966310727668
 30
0.0
 10
392.0171151394897
 20
174.5378908963633
 30
0.0
 10
391.4529296641571
 20
174.9345943633521
 30
0.0
 10
391.029268049751
 20
175.2331573466359
 30
0.0
 10
390.7905589932646
 20
175.4044349187046
 30
0.0
 10
390.7137156956988
 20
175.4597986239176
 30
0.0
  0
SPLINE
  5
19B
330
1F
100
AcDbEntity
  8
1
  6
Continuous
 62
    30
370
    18
100
AcDbSpline
210
0.0
220
0.0
230
1.0
 70
     8
 71
     3
 72
    29
 73
    25
 74
     0
 42
0.000000001
 43
0.0000000001
 40
0.0
 40
0.0
 40
0.0
 40
0.0
 40
0.0068260943496101
 40
0.02634316221812
 40
0.0401020820869735
 40
0.0500568569582358
 40
0.0588685624573079
 40
0.0683154518772455
 40
0.0807157430836466
 40
0.098673435438818
 40
0.1280540669106418
 40
0.1880578492828117
 40
0.2570948251880884
 40
0.3306482624094897
 40
0.4014567851612189
 40
0.4712602604833775
 40
0.5404182187523163
 40
0.5988461180555568
 40
0.6586103650780003
 40
0.7285735399239571
 40
0.800085927287675
 40
0.8733525888131053
 40
0.9484453978995194
 40
1.0
 40
1.0
 40
1.0
 40
1.0
 10
374.5180592636614
 20
178.6816001901864
 30
0.0
 10
374.4933805542054
 20
178.671767692051
 30
0.0
 10
374.3988715970013
 20
178.6328004104934
 30
0.0
 10
374.259665303964
 20
178.564331501559
 30
0.0
 10
374.1147620262515
 20
178.4881284073883
 30
0.0
 10
374.0160824291317
 20
178.4323062558356
 30
0.0
 10
373.9490717401058
 20
178.392790634531
 30
0.0
 10
373.9007825904852
 20
178.3634545727919
 30
0.0
 10
373.8618657327097
 20
178.3393191372986
 30
0.0
 10
373.8242364829933
 20
178.315604853964
 30
0.0
 10
373.7732564937011
 20
178.2830652276203
 30
0.0
 10
373.6956332298327
 20
178.2329527655942
 30
0.0
 10
373.5625944846978
 20
178.146369213443
 30
0.0
 10
373.3786645167415
 20
178.025938491264
 30
0.0
 10
373.1481892325364
 20
177.8743162742799
 30
0.0
 10
372.8788217702369
 20
177.6964218304063
 30
0.0
 10
372.585650933813
 20
177.5020442070701
 30
0.0
 10
372.2723817824416
 20
177.2938929959429
 30
0.0
 10
371.9206080626361
 20
177.0585190705626
 30
0.0
 10
371.515904710522
 20
176.7850330644956
 30
0.0
 10
371.0513702829474
 20
176.4675051178708
 30
0.0
 10
370.5459610007799
 20
176.1173590482001
 30
0.0
 10
370.0636707157858
 20
175.7789497575637
 30
0.0
 10
369.7443578239932
 20
175.5508830130948
 30
0.0
 10
369.6121821844418
 20
175.4559515552533
 30
0.0
  0
SPLINE
  5
19C
330
1F
100
AcDbEntity
  8
1
  6
Continuous
 62
    30
370
    18
100
AcDbSpline
210
0.0
220
0.0
230
1.0
 70
     8
 71
     3
 72
    29
 73
    25
 74
     0
 42
0.000000001
 43
0.0000000001
 40
0.0
 40
0.0
 40
0.0
 40
0.0
 40
0.0068260943491076
 40
0.0263431622176373
 40
0.0401020820867542
 40
0.0500568569578766
 40
0.0588685624570446
 40
0.0683154518769455
 40
0.080715743083269
 40
0.0986734354383564
 40
0.1280540669096734
 40
0.1880578492809609
 40
0.2570948251863715
 40
0.3306482624079145
 40
0.4014567851597046
 40
0.4712602604819043
 40
0.5404182187508598
 40
0.5988461180538843
 40
0.6586103650760039
 40
0.7285735399219302
 40
0.800085927285589
 40
0.8733525888109757
 40
0.9484453978973257
 40
1.0
 40
1.0
 40
1.0
 40
1.0
 10
385.809730407821
 20
117.0003319879373
 30
0.0
 10
385.8344091172752
 20
117.0101644860719
 30
0.0
 10
385.9289180744776
 20
117.0491317676286
 30
0.0
 10
386.0681243675141
 20
117.1176006765626
 30
0.0
 10
386.2130276452276
 20
117.1938037707336
 30
0.0
 10
386.3117072423482
 20
117.2496259222868
 30
0.0
 10
386.3787179313745
 20
117.2891415435915
 30
0.0
 10
386.4270070809959
 20
117.3184776053311
 30
0.0
 10
386.4659239387719
 20
117.3426130408247
 30
0.0
 10
386.5035531884878
 20
117.366327324159
 30
0.0
 10
386.5545331777798
 20
117.3988669505026
 30
0.0
 10
386.6321564416469
 20
117.4489794125277
 30
0.0
 10
386.7651951867805
 20
117.5355629646781
 30
0.0
 10
386.949125154736
 20
117.6559936868566
 30
0.0
 10
387.1796004389404
 20
117.8076159038403
 30
0.0
 10
387.4489679012391
 20
117.9855103477133
 30
0.0
 10
387.7421387376621
 20
118.1798879710488
 30
0.0
 10
388.0554078890314
 20
118.3880391821746
 30
0.0
 10
388.4071816088351
 20
118.6234131075537
 30
0.0
 10
388.8118849609474
 20
118.8968991136193
 30
0.0
 10
389.2764193885209
 20
119.2144270602433
 30
0.0
 10
389.7818286706872
 20
119.5645731299129
 30
0.0
 10
390.2641189556858
 20
119.9029824205525
 30
0.0
 10
390.5834318474834
 20
120.1310491650248
 30
0.0
 10
390.7156074870402
 20
120.2259806228703
 30
0.0
  0
SPLINE
  5
19D
330
1F
100
AcDbEntity
  8
1
  6
Continuous
 62
    30
370
    18
100
AcDbSpline
210
0.0
220
0.0
230
1.0
 70
     8
 71
     3
 72
    20
 73
    16
 74
     0
 42
0.000000001
 43
0.0000000001
 40
0.0
 40
0.0
 40
0.0
 40
0.0
 40
0.0817816803186827
 40
0.1676143646361529
 40
0.2515163619835
 40
0.3336414546711396
 40
0.4141725290404544
 40
0.4929962912059629
 40
0.5693643636195582
 40
0.647233389215085
 40
0.7242409877212073
 40
0.8001827151486268
 40
0.8746263999815596
 40
0.9348521567052654
 40
1.0
 40
1.0
 40
1.0
 40
1.0
 10
369.6158099441192
 20
120.2227654029774
 30
0.0
 10
369.8028698103508
 20
120.0888539089509
 30
0.0
 10
370.1776804431805
 20
119.8223713114435
 30
0.0
 10
370.7151015141886
 20
119.4467003569524
 30
0.0
 10
371.2238109521402
 20
119.0960145060122
 30
0.0
 10
371.6893822772164
 20
118.7792333070869
 30
0.0
 10
372.1108914324861
 20
118.4957319403034
 30
0.0
 10
372.4835537210069
 20
118.2474906594275
 30
0.0
 10
372.8145544454868
 20
118.0287384532302
 30
0.0
 10
373.1032611433737
 20
117.8394177324412
 30
0.0
 10
373.349060973377
 20
117.6793854615175
 30
0.0
 10
373.5471588921873
 20
117.5512307640398
 30
0.0
 10
373.6875559125011
 20
117.4608623961237
 30
0.0
 10
373.7794289490394
 20
117.4018571849625
 30
0.0
 10
373.8072631932449
 20
117.3839076286928
 30
0.0
 10
373.8132883229267
 20
117.380002284957
 30
0.0
  0
SPLINE
  5
19E
330
1F
100
AcDbEntity
  8
1
  6
Continuous
 62
    30
370
    18
100
AcDbSpline
210
0.0
220
0.0
230
1.0
 70
     8
 71
     3
 72
    13
 73
     9
 74
     0
 42
0.000000001
 43
0.0000000001
 40
0.0
 40
0.0
 40
0.0
 40
0.0
 40
0.2731619428545859
 40
0.5340189366718073
 40
0.6772888913389228
 40
0.772592911448741
 40
0.913963472741655
 40
1.0
 40
1.0
 40
1.0
 40
1.0
 10
373.8156511048509
 20
117.3784681501461
 30
0.0
 10
373.8156420891983
 20
117.3784740139131
 30
0.0
 10
373.8135563346827
 20
117.3798317504175
 30
0.0
 10
373.803026219495
 20
117.3867086431272
 30
0.0
 10
373.7759084496552
 20
117.4045967033887
 30
0.0
 10
373.7323128901139
 20
117.434024905439
 30
0.0
 10
373.68039665879
 20
117.469664411615
 30
0.0
 10
373.6436437121642
 20
117.4965194293192
 30
0.0
 10
373.6291706883474
 20
117.5072287883319
 30
0.0
  0
SPLINE
  5
19F
330
1F
100
AcDbEntity
  8
1
  6
Continuous
 62
    30
370
    18
100
AcDbSpline
210
0.0
220
0.0
230
1.0
 70
     8
 71
     3
 72
    20
 73
    16
 74
     0
 42
0.000000001
 43
0.0000000001
 40
0.0
 40
0.0
 40
0.0
 40
0.0
 40
0.0817816803143607
 40
0.1676143646272354
 40
0.2515163619700546
 40
0.3336414546532791
 40
0.4141725290182426
 40
0.492996291179518
 40
0.5693643635889668
 40
0.6472333891801948
 40
0.7242409876823033
 40
0.8001827151056041
 40
0.874626399934473
 40
0.9348521566548681
 40
1.0
 40
1.0
 40
1.0
 40
1.0
 10
390.7119797273629
 20
175.4591667751463
 30
0.0
 10
390.5249198611311
 20
175.5930782691729
 30
0.0
 10
390.1501092283012
 20
175.8595608666804
 30
0.0
 10
389.6126881572929
 20
176.2352318211717
 30
0.0
 10
389.1039787193413
 20
176.5859176721118
 30
0.0
 10
388.6384073942652
 20
176.9026988710371
 30
0.0
 10
388.2168982389956
 20
177.1862002378205
 30
0.0
 10
387.844235950475
 20
177.4344415186963
 30
0.0
 10
387.5132352259952
 20
177.6531937248935
 30
0.0
 10
387.2245285281084
 20
177.8425144456824
 30
0.0
 10
386.9787286981052
 20
178.0025467166061
 30
0.0
 10
386.7806307792948
 20
178.1307014140839
 30
0.0
 10
386.6402337589813
 20
178.2210697819998
 30
0.0
 10
386.5483607224173
 20
178.2800749931774
 30
0.0
 10
386.5205264782143
 20
178.2980245494456
 30
0.0
 10
386.5145013485405
 20
178.3019298931764
 30
0.0
  0
SPLINE
  5
1A0
330
1F
100
AcDbEntity
  8
1
  6
Continuous
 62
    30
370
    18
100
AcDbSpline
210
0.0
220
0.0
230
1.0
 70
     8
 71
     3
 72
    13
 73
     9
 74
     0
 42
0.000000001
 43
0.0000000001
 40
0.0
 40
0.0
 40
0.0
 40
0.0
 40
0.2731620314677318
 40
0.5340189934876243
 40
0.67728893068583
 40
0.772592939179006
 40
0.9139634832351796
 40
1.0
 40
1.0
 40
1.0
 40
1.0
 10
386.5121385666183
 20
178.3034640279859
 30
0.0
 10
386.5121475813305
 20
178.3034581648311
 30
0.0
 10
386.5142333349029
 20
178.3021004289446
 30
0.0
 10
386.5247634519882
 20
178.2952235349957
 30
0.0
 10
386.5518812218261
 20
178.2773354747354
 30
0.0
 10
386.5954767813685
 20
178.2479072726845
 30
0.0
 10
386.6473930126901
 20
178.21226776651
 30
0.0
 10
386.684145959315
 20
178.1854127488065
 30
0.0
 10
386.6986189831308
 20
178.1747033897946
 30
0.0
  0
SPLINE
  5
1A1
330
1F
100
AcDbEntity
  8
1
  6
Continuous
 62
    30
370
    13
100
AcDbSpline
210
0.0
220
0.0
230
1.0
 70
     8
 71
     3
 72
    33
 73
    29
 74
     0
 42
0.000000001
 43
0.0000000001
 40
0.0
 40
0.0
 40
0.0
 40
0.0
 40
0.1249999999999948
 40
0.1249999999999948
 40
0.2499999999999897
 40
0.2499999999999897
 40
0.2812499999999903
 40
0.2812499999999903
 40
0.312499999999991
 40
0.312499999999991
 40
0.3437499999999916
 40
0.3437499999999916
 40
0.3749999999999923
 40
0.3749999999999923
 40
0.499999999999997
 40
0.499999999999997
 40
0.6250000000000017
 40
0.6250000000000017
 40
0.6875000000000049
 40
0.6875000000000049
 40
0.7031250000000049
 40
0.7031250000000049
 40
0.718750000000005
 40
0.7500000000000051
 40
0.7500000000000051
 40
0.8750000000000026
 40
0.8750000000000026
 40
1.0
 40
1.0
 40
1.0
 40
1.0
 10
388.6638912991863
 20
121.3551172775438
 30
0.0
 10
388.6638983722959
 20
121.3551243479838
 30
0.0
 10
388.6813904253905
 20
121.3726097991812
 30
0.0
 10
388.749073538882
 20
121.4404607970602
 30
0.0
 10
388.7992719763333
 20
121.4908342811626
 30
0.0
 10
388.8818343730056
 20
121.5740766330081
 30
0.0
 10
388.8993403314839
 20
121.5917425209837
 30
0.0
 10
388.9363341562771
 20
121.6291163791899
 30
0.0
 10
388.9558469938262
 20
121.6488496611681
 30
0.0
 10
388.9966793174487
 20
121.6901945933612
 30
0.0
 10
389.0180262580766
 20
121.7118340347025
 30
0.0
 10
389.0624040947134
 20
121.7568805852073
 30
0.0
 10
389.085400633916
 20
121.7802527813998
 30
0.0
 10
389.2042607491691
 20
121.9012287521681
 30
0.0
 10
389.3117057757794
 20
122.0111216039348
 30
0.0
 10
389.5481106288413
 20
122.2548095016889
 30
0.0
 10
389.6770864182043
 20
122.3886199488319
 30
0.0
 10
389.8850573612247
 20
122.6063934628506
 30
0.0
 10
389.9568051410562
 20
122.6818349856337
 30
0.0
 10
390.0493871453879
 20
122.7796554620706
 30
0.0
 10
390.0680397352583
 20
122.7993863811363
 30
0.0
 10
390.1055213307991
 20
122.8390823659355
 30
0.0
 10
390.1620465907135
 20
122.8990179505457
 30
0.0
 10
390.2194573840436
 20
122.9601123053552
 30
0.0
 10
390.4126996102946
 20
123.1662716024355
 30
0.0
 10
390.5732634051378
 20
123.3392111737908
 30
0.0
 10
390.9043198676927
 20
123.6999221718533
 30
0.0
 10
391.0748199518229
 20
123.8877004087874
 30
0.0
 10
391.2495146958286
 20
124.0825539490353
 30
0.0
  0
SPLINE
  5
1A2
330
1F
100
AcDbEntity
  8
1
  6
Continuous
 62
    30
370
    13
100
AcDbSpline
210
0.0
220
0.0
230
1.0
 70
     8
 71
     3
 72
    30
 73
    26
 74
     0
 42
0.000000001
 43
0.0000000001
 40
0.0
 40
0.0
 40
0.0
 40
0.0
 40
0.1249999999999994
 40
0.1249999999999994
 40
0.2499999999999988
 40
0.2499999999999988
 40
0.3749999999999982
 40
0.3749999999999982
 40
0.4062499999999981
 40
0.4218749999999981
 40
0.4218749999999981
 40
0.4374999999999979
 40
0.4374999999999979
 40
0.4999999999999982
 40
0.4999999999999982
 40
0.6249999999999993
 40
0.6249999999999993
 40
0.7500000000000003
 40
0.7500000000000003
 40
0.8750000000000011
 40
0.8750000000000011
 40
0.9062500000000009
 40
0.9062500000000009
 40
0.9375000000000007
 40
1.0
 40
1.0
 40
1.0
 40
1.0
 10
391.2495146958286
 20
124.0825539490353
 30
0.0
 10
391.4834880914574
 20
124.3435265657076
 30
0.0
 10
391.7252477320121
 20
124.6085197469181
 30
0.0
 10
392.2193738490504
 20
125.1499053861849
 30
0.0
 10
392.4717430392787
 20
125.4262964865947
 30
0.0
 10
392.9827820774515
 20
125.9931923741935
 30
0.0
 10
393.2414542373555
 20
126.2836949681196
 30
0.0
 10
393.5664032381892
 20
126.6569726601028
 30
0.0
 10
393.6640105798242
 20
126.7697151699507
 30
0.0
 10
393.761742091435
 20
126.8836280662845
 30
0.0
 10
393.8269176093055
 20
126.9598333642344
 30
0.0
 10
393.8595255001622
 20
126.9980790559731
 30
0.0
 10
394.0222960295852
 20
127.1896129257151
 30
0.0
 10
394.1518702194583
 20
127.3440750208099
 30
0.0
 10
394.5382121124629
 20
127.8113613860138
 30
0.0
 10
394.7925806337065
 20
128.1280969160812
 30
0.0
 10
395.2930383376711
 20
128.7727040590765
 30
0.0
 10
395.5391339814572
 20
129.1005712523327
 30
0.0
 10
396.0216828734278
 20
129.7678391280425
 30
0.0
 10
396.2581409324843
 20
130.1072366621236
 30
0.0
 10
396.5470516224107
 20
130.5388204147272
 30
0.0
 10
396.6045028418354
 20
130.6255067880532
 30
0.0
 10
396.7185597560355
 20
130.7993566056662
 30
0.0
 10
396.8884421431149
 20
131.0609435304311
 30
0.0
 10
397.054692402708
 20
131.3249764531715
 30
0.0
 10
397.1638948357411
 20
131.5020917436251
 30
0.0
  0
SPLINE
  5
1A3
330
1F
100
AcDbEntity
  8
1
  6
Continuous
 62
    30
370
    13
100
AcDbSpline
210
0.0
220
0.0
230
1.0
 70
     8
 71
     3
 72
    27
 73
    23
 74
     0
 42
0.000000001
 43
0.0000000001
 40
0.0
 40
0.0
 40
0.0
 40
0.0
 40
0.124999999999999
 40
0.124999999999999
 40
0.2499999999999979
 40
0.2499999999999979
 40
0.3749999999999969
 40
0.3749999999999969
 40
0.4999999999999959
 40
0.4999999999999959
 40
0.5312499999999954
 40
0.5468749999999952
 40
0.5468749999999952
 40
0.5624999999999949
 40
0.5624999999999949
 40
0.6249999999999957
 40
0.6249999999999957
 40
0.7499999999999971
 40
0.7499999999999971
 40
0.8749999999999986
 40
0.8749999999999986
 40
1.0
 40
1.0
 40
1.0
 40
1.0
 10
397.1638948357411
 20
164.1798404344985
 30
0.0
 10
396.9452742616735
 20
164.5344208719451
 30
0.0
 10
396.7207912559279
 20
164.8835138039468
 30
0.0
 10
396.2607800714866
 20
165.5708129963927
 30
0.0
 10
396.025248190694
 20
165.9090170026755
 30
0.0
 10
395.5440312548414
 20
166.5747323722029
 30
0.0
 10
395.2983411221568
 20
166.9022404996672
 30
0.0
 10
394.7980473713648
 20
167.5469480054313
 30
0.0
 10
394.5434367317306
 20
167.8641427392226
 30
0.0
 10
394.2207065682215
 20
168.2546245502159
 30
0.0
 10
394.1235549121944
 20
168.3713196640364
 30
0.0
 10
394.0259435042132
 20
168.487357680978
 30
0.0
 10
393.9607717961236
 20
168.5645724653545
 30
0.0
 10
393.9281351322743
 20
168.6031101754697
 30
0.0
 10
393.7650687825142
 20
168.7950360201423
 30
0.0
 10
393.6347131281888
 20
168.9464622465596
 30
0.0
 10
393.2445642740657
 20
169.3947193082394
 30
0.0
 10
392.9856713865598
 20
169.6855107818233
 30
0.0
 10
392.474037389737
 20
170.2531142363101
 30
0.0
 10
392.2212938088549
 20
170.5299238677477
 30
0.0
 10
391.7262912972207
 20
171.0722683950577
 30
0.0
 10
391.4840294774494
 20
171.3378017535089
 30
0.0
 10
391.2495146958286
 20
171.5993782290884
 30
0.0
  0
SPLINE
  5
1A4
330
1F
100
AcDbEntity
  8
1
  6
Continuous
 62
    30
370
    13
100
AcDbSpline
210
0.0
220
0.0
230
1.0
 70
     8
 71
     3
 72
    34
 73
    30
 74
     0
 42
0.000000001
 43
0.0000000001
 40
0.0
 40
0.0
 40
0.0
 40
0.0
 40
0.1250390870581185
 40
0.1250390870581185
 40
0.250078174116237
 40
0.250078174116237
 40
0.312597717645295
 40
0.312597717645295
 40
0.3438574894098254
 40
0.3438574894098254
 40
0.3751172611743558
 40
0.3751172611743558
 40
0.5001563482324768
 40
0.5001563482324768
 40
0.6251954352905978
 40
0.6251954352905978
 40
0.6564552070551294
 40
0.6564552070551294
 40
0.6720850929373953
 40
0.6720850929373953
 40
0.6877149788196613
 40
0.7502345223487161
 40
0.7502345223487161
 40
0.7814942941132452
 40
0.7814942941132452
 40
0.8127540658777743
 40
0.8752736094068325
 40
0.8752736094068325
 40
1.0
 40
1.0
 40
1.0
 40
1.0
 10
391.2495146958286
 20
171.5993782290884
 30
0.0
 10
391.0752587856777
 20
171.7937422965093
 30
0.0
 10
390.9053299930162
 20
171.9808956987839
 30
0.0
 10
390.5756406764123
 20
172.3401443475737
 30
0.0
 10
390.415873256349
 20
172.5122458813179
 30
0.0
 10
390.185297205706
 20
172.7582773427237
 30
0.0
 10
390.1099549716286
 20
172.8382634420939
 30
0.0
 10
389.9994446930762
 20
172.9550532335455
 30
0.0
 10
389.9630254893792
 20
172.9934512153823
 30
0.0
 10
389.8910654231329
 20
173.0691525387618
 30
0.0
 10
389.8554952666935
 20
173.1064863282136
 30
0.0
 10
389.681013462109
 20
173.2892290067917
 30
0.0
 10
389.5513724303401
 20
173.4237464580865
 30
0.0
 10
389.3140568314412
 20
173.6684006916582
 30
0.0
 10
389.2063675919646
 20
173.778551470795
 30
0.0
 10
389.0873582323952
 20
173.8996887543613
 30
0.0
 10
389.064339469658
 20
173.9230852998354
 30
0.0
 10
389.0310315357175
 20
173.9568976621821
 30
0.0
 10
389.0201330148087
 20
173.9679539253524
 30
0.0
 10
388.9988055818776
 20
173.9895769000212
 30
0.0
 10
388.9466251428381
 20
174.0424467316959
 30
0.0
 10
388.9001757770097
 20
174.0893610964171
 30
0.0
 10
388.8501596099814
 20
174.1397920999812
 30
0.0
 10
388.8344283057241
 20
174.1556377507871
 30
0.0
 10
388.8050501338099
 20
174.1852062142934
 30
0.0
 10
388.7640620054352
 20
174.2264223088742
 30
0.0
 10
388.7323238899278
 20
174.2582625185796
 30
0.0
 10
388.6814019527057
 20
174.3093109384021
 30
0.0
 10
388.6639743357304
 20
174.3267318962495
 30
0.0
 10
388.663898439133
 20
174.3268077633937
 30
0.0
  0
SPLINE
  5
1A5
330
1F
100
AcDbEntity
  8
1
  6
Continuous
 62
    30
370
    13
100
AcDbSpline
210
0.0
220
0.0
230
1.0
 70
     8
 71
     3
 72
    27
 73
    23
 74
     0
 42
0.000000001
 43
0.0000000001
 40
0.0
 40
0.0
 40
0.0
 40
0.0
 40
0.1250000000000018
 40
0.1250000000000018
 40
0.2500000000000036
 40
0.2500000000000036
 40
0.3750000000000051
 40
0.3750000000000051
 40
0.5000000000000066
 40
0.5000000000000066
 40
0.5312500000000069
 40
0.5468750000000062
 40
0.5468750000000062
 40
0.5625000000000056
 40
0.5625000000000056
 40
0.6250000000000049
 40
0.6250000000000049
 40
0.7500000000000032
 40
0.7500000000000032
 40
0.8750000000000017
 40
0.8750000000000017
 40
1.0
 40
1.0
 40
1.0
 40
1.0
 10
363.163894835741
 20
131.5020917436251
 30
0.0
 10
363.3825154098085
 20
131.1475113061786
 30
0.0
 10
363.6069984155542
 20
130.7984183741769
 30
0.0
 10
364.0670095999955
 20
130.111119181731
 30
0.0
 10
364.3025414807881
 20
129.7729151754482
 30
0.0
 10
364.7837584166407
 20
129.1071998059207
 30
0.0
 10
365.0294485493254
 20
128.7796916784565
 30
0.0
 10
365.5297423001173
 20
128.1349841726924
 30
0.0
 10
365.7843529397515
 20
127.8177894389011
 30
0.0
 10
366.1070831032606
 20
127.4273076279078
 30
0.0
 10
366.2042347592877
 20
127.3106125140872
 30
0.0
 10
366.3018461672689
 20
127.1945744971457
 30
0.0
 10
366.3670178753585
 20
127.1173597127692
 30
0.0
 10
366.3996545392077
 20
127.078822002654
 30
0.0
 10
366.5627208889679
 20
126.8868961579813
 30
0.0
 10
366.6930765432933
 20
126.7354699315641
 30
0.0
 10
367.0832253974164
 20
126.2872128698842
 30
0.0
 10
367.3421182849223
 20
125.9964213963004
 30
0.0
 10
367.8537522817451
 20
125.4288179418136
 30
0.0
 10
368.1064958626272
 20
125.1520083103759
 30
0.0
 10
368.6014983742614
 20
124.6096637830659
 30
0.0
 10
368.8437601940327
 20
124.3441304246147
 30
0.0
 10
369.0782749756535
 20
124.0825539490353
 30
0.0
  0
SPLINE
  5
1A6
330
1F
100
AcDbEntity
  8
1
  6
Continuous
 62
    30
370
    13
100
AcDbSpline
210
0.0
220
0.0
230
1.0
 70
     8
 71
     3
 72
    34
 73
    30
 74
     0
 42
0.000000001
 43
0.0000000001
 40
0.0
 40
0.0
 40
0.0
 40
0.0
 40
0.1250390848616204
 40
0.1250390848616204
 40
0.2500781697232408
 40
0.2500781697232408
 40
0.3125977121540495
 40
0.3125977121540495
 40
0.3438574833694543
 40
0.3438574833694543
 40
0.3751172545848591
 40
0.3751172545848591
 40
0.5001563394464775
 40
0.5001563394464775
 40
0.6251954243080959
 40
0.6251954243080959
 40
0.656455195523502
 40
0.656455195523502
 40
0.672085081131205
 40
0.672085081131205
 40
0.6877149667389081
 40
0.7502345091697118
 40
0.7502345091697118
 40
0.781494280385115
 40
0.781494280385115
 40
0.8127540516005183
 40
0.8752735940313247
 40
0.8752735940313247
 40
1.0
 40
1.0
 40
1.0
 40
1.0
 10
369.0782749756535
 20
124.0825539490353
 30
0.0
 10
369.2525308858044
 20
123.8881898816143
 30
0.0
 10
369.4224596784659
 20
123.7010364793398
 30
0.0
 10
369.7521489950698
 20
123.34178783055
 30
0.0
 10
369.9119164151331
 20
123.1696862968058
 30
0.0
 10
370.1424924657761
 20
122.9236548354
 30
0.0
 10
370.2178346998535
 20
122.8436687360297
 30
0.0
 10
370.3283449784059
 20
122.7268789445782
 30
0.0
 10
370.3647641821029
 20
122.6884809627414
 30
0.0
 10
370.4367242483492
 20
122.6127796393619
 30
0.0
 10
370.4722944047886
 20
122.5754458499101
 30
0.0
 10
370.6467762093731
 20
122.392703171332
 30
0.0
 10
370.776417241142
 20
122.2581857200372
 30
0.0
 10
371.0137328400409
 20
122.0135314864655
 30
0.0
 10
371.1214220795175
 20
121.9033807073287
 30
0.0
 10
371.2404314390869
 20
121.7822434237624
 30
0.0
 10
371.2634502018241
 20
121.7588468782883
 30
0.0
 10
371.2967581357645
 20
121.7250345159416
 30
0.0
 10
371.3076566566734
 20
121.7139782527713
 30
0.0
 10
371.3289840896045
 20
121.6923552781024
 30
0.0
 10
371.381164528644
 20
121.6394854464278
 30
0.0
 10
371.4276138944724
 20
121.5925710817066
 30
0.0
 10
371.4776300615007
 20
121.5421400781425
 30
0.0
 10
371.4933613657579
 20
121.5262944273366
 30
0.0
 10
371.5227395376722
 20
121.4967259638303
 30
0.0
 10
371.5637276660469
 20
121.4555098692494
 30
0.0
 10
371.5954657815543
 20
121.4236696595441
 30
0.0
 10
371.6463877235537
 20
121.3726212349325
 30
0.0
 10
371.6638153406606
 20
121.3552002769669
 30
0.0
 10
371.6638912323812
 20
121.355124414698
 30
0.0
  0
SPLINE
  5
1A7
330
1F
100
AcDbEntity
  8
1
  6
Continuous
 62
    30
370
    13
100
AcDbSpline
210
0.0
220
0.0
230
1.0
 70
     8
 71
     3
 72
    33
 73
    29
 74
     0
 42
0.000000001
 43
0.0000000001
 40
0.0
 40
0.0
 40
0.0
 40
0.0
 40
0.1250000000000044
 40
0.1250000000000044
 40
0.2500000000000089
 40
0.2500000000000089
 40
0.2812500000000084
 40
0.2812500000000084
 40
0.312500000000008
 40
0.312500000000008
 40
0.3437500000000075
 40
0.3437500000000075
 40
0.3750000000000071
 40
0.3750000000000071
 40
0.5000000000000067
 40
0.5000000000000067
 40
0.6250000000000062
 40
0.6250000000000062
 40
0.6875000000000072
 40
0.6875000000000072
 40
0.7031250000000068
 40
0.7031250000000068
 40
0.7187500000000063
 40
0.7500000000000053
 40
0.7500000000000053
 40
0.8750000000000027
 40
0.8750000000000027
 40
1.0
 40
1.0
 40
1.0
 40
1.0
 10
371.6638983722959
 20
174.32681490058
 30
0.0
 10
371.6638912991863
 20
174.3268078301399
 30
0.0
 10
371.6463992460917
 20
174.3093223789424
 30
0.0
 10
371.5787161326002
 20
174.2414713810635
 30
0.0
 10
371.5285176951489
 20
174.191097896961
 30
0.0
 10
371.4459552984766
 20
174.1078555451156
 30
0.0
 10
371.4284493399983
 20
174.09018965714
 30
0.0
 10
371.3914555152051
 20
174.0528157989338
 30
0.0
 10
371.371942677656
 20
174.0330825169556
 30
0.0
 10
371.3311103540335
 20
173.9917375847625
 30
0.0
 10
371.3097634134056
 20
173.9700981434211
 30
0.0
 10
371.2653855767688
 20
173.9250515929164
 30
0.0
 10
371.2423890375662
 20
173.9016793967238
 30
0.0
 10
371.1235289223131
 20
173.7807034259556
 30
0.0
 10
371.0160838957028
 20
173.6708105741889
 30
0.0
 10
370.7796790426409
 20
173.4271226764348
 30
0.0
 10
370.6507032532779
 20
173.2933122292918
 30
0.0
 10
370.4427323102576
 20
173.0755387152731
 30
0.0
 10
370.370984530426
 20
173.00009719249
 30
0.0
 10
370.2784025260943
 20
172.9022767160531
 30
0.0
 10
370.2597499362239
 20
172.8825457969874
 30
0.0
 10
370.2222683406831
 20
172.8428498121881
 30
0.0
 10
370.1657430807687
 20
172.782914227578
 30
0.0
 10
370.1083322874386
 20
172.7218198727684
 30
0.0
 10
369.9150900611876
 20
172.5156605756882
 30
0.0
 10
369.7545262663444
 20
172.3427210043328
 30
0.0
 10
369.4234698037894
 20
171.9820100062704
 30
0.0
 10
369.2529697196593
 20
171.7942317693362
 30
0.0
 10
369.0782749756536
 20
171.5993782290884
 30
0.0
  0
SPLINE
  5
1A8
330
1F
100
AcDbEntity
  8
1
  6
Continuous
 62
    30
370
    13
100
AcDbSpline
210
0.0
220
0.0
230
1.0
 70
     8
 71
     3
 72
    30
 73
    26
 74
     0
 42
0.000000001
 43
0.0000000001
 40
0.0
 40
0.0
 40
0.0
 40
0.0
 40
0.1250000000000002
 40
0.1250000000000002
 40
0.2500000000000004
 40
0.2500000000000004
 40
0.3750000000000006
 40
0.3750000000000006
 40
0.4062500000000002
 40
0.4218750000000001
 40
0.4218750000000001
 40
0.4374999999999998
 40
0.4374999999999998
 40
0.4999999999999997
 40
0.4999999999999997
 40
0.6249999999999994
 40
0.6249999999999994
 40
0.7499999999999991
 40
0.7499999999999991
 40
0.8749999999999989
 40
0.8749999999999989
 40
0.9062499999999992
 40
0.9062499999999992
 40
0.9374999999999994
 40
1.0
 40
1.0
 40
1.0
 40
1.0
 10
369.0782749756536
 20
171.5993782290884
 30
0.0
 10
368.8443015800248
 20
171.338405612416
 30
0.0
 10
368.6025419394701
 20
171.0734124312056
 30
0.0
 10
368.1084158224318
 20
170.5320267919388
 30
0.0
 10
367.8560466322035
 20
170.2556356915289
 30
0.0
 10
367.3450075940307
 20
169.6887398039302
 30
0.0
 10
367.0863354341267
 20
169.398237210004
 30
0.0
 10
366.761386433293
 20
169.0249595180209
 30
0.0
 10
366.663779091658
 20
168.9122170081729
 30
0.0
 10
366.5660475800472
 20
168.7983041118392
 30
0.0
 10
366.5008720621767
 20
168.7220988138892
 30
0.0
 10
366.46826417132
 20
168.6838531221506
 30
0.0
 10
366.305493641897
 20
168.4923192524086
 30
0.0
 10
366.1759194520239
 20
168.3378571573138
 30
0.0
 10
365.7895775590193
 20
167.8705707921099
 30
0.0
 10
365.5352090377758
 20
167.5538352620424
 30
0.0
 10
365.034751333811
 20
166.9092281190472
 30
0.0
 10
364.7886556900251
 20
166.581360925791
 30
0.0
 10
364.3061067980544
 20
165.9140930500812
 30
0.0
 10
364.0696487389979
 20
165.5746955160001
 30
0.0
 10
363.7807380490715
 20
165.1431117633965
 30
0.0
 10
363.7232868296468
 20
165.0564253900704
 30
0.0
 10
363.6092299154467
 20
164.8825755724575
 30
0.0
 10
363.4393475283673
 20
164.6209886476926
 30
0.0
 10
363.2730972687742
 20
164.3569557249522
 30
0.0
 10
363.1638948357411
 20
164.1798404344986
 30
0.0
  0
SPLINE
  5
1A9
330
1F
100
AcDbEntity
  8
1
  6
Continuous
 62
    30
370
    13
100
AcDbSpline
210
0.0
220
0.0
230
1.0
 70
     8
 71
     3
 72
    49
 73
    45
 74
     0
 42
0.000000001
 43
0.0000000001
 40
0.0
 40
0.0
 40
0.0
 40
0.0
 40
0.0611489897803374
 40
0.0611489897803374
 40
0.1222979795606748
 40
0.1222979795606748
 40
0.1834469693410121
 40
0.1834469693410121
 40
0.1987342167860976
 40
0.1987342167860976
 40
0.214021464231183
 40
0.214021464231183
 40
0.244595959121354
 40
0.244595959121354
 40
0.25988320656644
 40
0.25988320656644
 40
0.2751704540115261
 40
0.3057449489016964
 40
0.3057449489016964
 40
0.3668939386820373
 40
0.3668939386820373
 40
0.4280429284623782
 40
0.4280429284623782
 40
0.4891919182427192
 40
0.4891919182427192
 40
0.5044791656878044
 40
0.5044791656878044
 40
0.5197664131328897
 40
0.5197664131328897
 40
0.5503409080230603
 40
0.5503409080230603
 40
0.6114898978034007
 40
0.6114898978034007
 40
0.7337878773640801
 40
0.7337878773640801
 40
0.8560858569247595
 40
0.8560858569247595
 40
0.9172348467050996
 40
0.9172348467050996
 40
0.9478093415952693
 40
0.9478093415952693
 40
0.978383836485439
 40
0.978383836485439
 40
1.0
 40
1.0
 40
1.0
 40
1.0
 10
371.663894835741
 20
132.722682456321
 30
0.0
 10
371.663894835741
 20
132.766767024707
 30
0.0
 10
371.6558550780623
 20
132.8210445641979
 30
0.0
 10
371.6255629753399
 20
132.9480775214026
 30
0.0
 10
371.6033047729589
 20
133.0208382962672
 30
0.0
 10
371.5459466652729
 20
133.1834274986566
 30
0.0
 10
371.5108431085102
 20
133.2732593238118
 30
0.0
 10
371.4595821145311
 20
133.3955561735865
 30
0.0
 10
371.4489601376237
 20
133.4205166405668
 30
0.0
 10
371.426990211008
 20
133.4714259820886
 30
0.0
 10
371.415637188585
 20
133.4973857998638
 30
0.0
 10
371.3806234874575
 20
133.5764712455183
 30
0.0
 10
371.3559765613687
 20
133.6308782231
 30
0.0
 10
371.317165757957
 20
133.7148870067293
 30
0.0
 10
371.3039287236375
 20
133.7432747395726
 30
0.0
 10
371.2769340896397
 20
133.8006722137782
 30
0.0
 10
371.2356366010985
 20
133.8877546291068
 30
0.0
 10
371.1920196489459
 20
133.9776919982353
 30
0.0
 10
371.1019177905815
 20
134.1611327360211
 30
0.0
 10
371.038034069142
 20
134.2881726474159
 30
0.0
 10
370.9035946828353
 20
134.5507114933736
 30
0.0
 10
370.83303623981
 20
134.6862132628313
 30
0.0
 10
370.6859717302805
 20
134.9648920732511
 30
0.0
 10
370.6094638979225
 20
135.1080709309328
 30
0.0
 10
370.5104641067509
 20
135.2914598125625
 30
0.0
 10
370.4904955688482
 20
135.3283587119571
 30
0.0
 10
370.4502289553491
 20
135.4025905060244
 30
0.0
 10
370.4299173978683
 20
135.4399481123383
 30
0.0
 10
370.3686123623767
 20
135.5524527663968
 30
0.0
 10
370.327262022224
 20
135.6280076835347
 30
0.0
 10
370.2018630434039
 20
135.8562380835734
 30
0.0
 10
370.116469498212
 20
136.0104762965641
 30
0.0
 10
369.8555199144582
 20
136.4788501114878
 30
0.0
 10
369.6752239161441
 20
136.7986165195143
 30
0.0
 10
369.3042829811926
 20
137.4509398524315
 30
0.0
 10
369.1136239012288
 20
137.7835099606046
 30
0.0
 10
368.820991778877
 20
138.2908796438123
 30
0.0
 10
368.7223356526073
 20
138.4614267950244
 30
0.0
 10
368.5727898158538
 20
138.7192825753453
 30
0.0
 10
368.5226804743725
 20
138.805574314245
 30
0.0
 10
368.4219572429852
 20
138.97882047539
 30
0.0
 10
368.3714478309984
 20
139.0655952073885
 30
0.0
 10
368.2849870164103
 20
139.2139711712711
 30
0.0
 10
368.2491065944852
 20
139.2754984986262
 30
0.0
 10
368.2131576456529
 20
139.3370980663177
 30
0.0
  0
SPLINE
  5
1AA
330
1F
100
AcDbEntity
  8
1
  6
Continuous
 62
    30
370
    13
100
AcDbSpline
210
0.0
220
0.0
230
1.0
 70
     8
 71
     3
 72
    49
 73
    45
 74
     0
 42
0.000000001
 43
0.0000000001
 40
0.0
 40
0.0
 40
0.0
 40
0.0
 40
0.0216161634283931
 40
0.0216161634283931
 40
0.0521906583212554
 40
0.0521906583212554
 40
0.0827651532141179
 40
0.0827651532141179
 40
0.143914142999844
 40
0.143914142999844
 40
0.266212122571297
 40
0.266212122571297
 40
0.3885101021427501
 40
0.3885101021427501
 40
0.4496590919284772
 40
0.4496590919284772
 40
0.4802335868213402
 40
0.4802335868213402
 40
0.4955208342677717
 40
0.4955208342677717
 40
0.5108080817142031
 40
0.5108080817142031
 40
0.5719570714999289
 40
0.5719570714999289
 40
0.633106061285655
 40
0.633106061285655
 40
0.6942550510713811
 40
0.6942550510713811
 40
0.7248295459642441
 40
0.7401167934106763
 40
0.7401167934106763
 40
0.7554040408571087
 40
0.7554040408571087
 40
0.7859785357499717
 40
0.7859785357499717
 40
0.8012657831964032
 40
0.8012657831964032
 40
0.8165530306428348
 40
0.8165530306428348
 40
0.8777020204285565
 40
0.8777020204285565
 40
0.9388510102142783
 40
0.9388510102142783
 40
1.0
 40
1.0
 40
1.0
 40
1.0
 10
368.2131576460924
 20
156.3448341125589
 30
0.0
 10
368.2491065947776
 20
156.4064336799988
 30
0.0
 10
368.2849870165562
 20
156.467961007103
 30
0.0
 10
368.3714478309985
 20
156.6163369707352
 30
0.0
 10
368.4219572429852
 20
156.7031117027337
 30
0.0
 10
368.5226804743725
 20
156.8763578638787
 30
0.0
 10
368.5727898158538
 20
156.9626496027784
 30
0.0
 10
368.7223356526073
 20
157.2205053830993
 30
0.0
 10
368.8209917788771
 20
157.3910525343114
 30
0.0
 10
369.1136239012288
 20
157.8984222175191
 30
0.0
 10
369.3042829811927
 20
158.2309923256921
 30
0.0
 10
369.6752239161442
 20
158.8833156586093
 30
0.0
 10
369.8555199144582
 20
159.2030820666359
 30
0.0
 10
370.1164694982121
 20
159.6714558815596
 30
0.0
 10
370.201863043404
 20
159.8256940945503
 30
0.0
 10
370.327262022224
 20
160.053924494589
 30
0.0
 10
370.3686123623767
 20
160.1294794117269
 30
0.0
 10
370.4299173978684
 20
160.2419840657854
 30
0.0
 10
370.4502289553491
 20
160.2793416720993
 30
0.0
 10
370.4904955688483
 20
160.3535734661666
 30
0.0
 10
370.5104641067509
 20
160.3904723655612
 30
0.0
 10
370.6094638979225
 20
160.5738612471909
 30
0.0
 10
370.6859717302806
 20
160.7170401048726
 30
0.0
 10
370.83303623981
 20
160.9957189152924
 30
0.0
 10
370.9035946828353
 20
161.1312206847501
 30
0.0
 10
371.0380340691422
 20
161.3937595307077
 30
0.0
 10
371.1019177905816
 20
161.5207994421026
 30
0.0
 10
371.192019648946
 20
161.7042401798884
 30
0.0
 10
371.2356366010986
 20
161.7941775490169
 30
0.0
 10
371.2769340896398
 20
161.8812599643455
 30
0.0
 10
371.3039287236375
 20
161.9386574385511
 30
0.0
 10
371.3171657579571
 20
161.9670451713944
 30
0.0
 10
371.3559765613688
 20
162.0510539550237
 30
0.0
 10
371.3806234874576
 20
162.1054609326054
 30
0.0
 10
371.4156371885851
 20
162.1845463782599
 30
0.0
 10
371.4269902110082
 20
162.2105061960351
 30
0.0
 10
371.4489601376237
 20
162.2614155375569
 30
0.0
 10
371.4595821145312
 20
162.2863760045372
 30
0.0
 10
371.5108431085102
 20
162.4086728543119
 30
0.0
 10
371.5459466652729
 20
162.4985046794671
 30
0.0
 10
371.6033047729589
 20
162.6610938818565
 30
0.0
 10
371.62556297534
 20
162.7338546567211
 30
0.0
 10
371.6558550780624
 20
162.8608876139258
 30
0.0
 10
371.6638948357411
 20
162.9151651534167
 30
0.0
 10
371.6638948357411
 20
162.9592497218027
 30
0.0
  0
SPLINE
  5
1AB
330
1F
100
AcDbEntity
  8
1
  6
Continuous
 62
    30
370
    18
100
AcDbSpline
210
0.0
220
0.0
230
1.0
 70
    24
 71
     3
 72
     8
 73
     4
 74
     0
 42
0.000000001
 43
0.0000000001
 40
0.0
 40
0.0
 40
0.0
 40
0.0
 40
1.0
 40
1.0
 40
1.0
 40
1.0
 10
389.1638948357411
 20
138.631280107468
 30
0.0
 10
389.1638948357411
 20
138.6271505027779
 30
0.0
 10
389.1638948357411
 20
138.6230208980878
 30
0.0
 10
389.1638948357411
 20
138.6188912933977
 30
0.0
  0
SPLINE
  5
1AC
330
1F
100
AcDbEntity
  8
1
  6
Continuous
 62
    30
370
    18
100
AcDbSpline
210
0.0
220
0.0
230
1.0
 70
    24
 71
     3
 72
     8
 73
     4
 74
     0
 42
0.000000001
 43
0.0000000001
 40
0.0
 40
0.0
 40
0.0
 40
0.0
 40
1.0
 40
1.0
 40
1.0
 40
1.0
 10
371.1638948357411
 20
157.0506520706556
 30
0.0
 10
371.1638948357411
 20
157.0547816753457
 30
0.0
 10
371.1638948357411
 20
157.0589112800359
 30
0.0
 10
371.1638948357411
 20
157.063040884726
 30
0.0
  0
SPLINE
  5
1AD
330
1F
100
AcDbEntity
  8
1
  6
Continuous
 62
    30
370
    18
100
AcDbSpline
210
0.0
220
0.0
230
1.0
 70
    24
 71
     3
 72
     8
 73
     4
 74
     0
 42
0.000000001
 43
0.0000000001
 40
0.0
 40
0.0
 40
0.0
 40
0.0
 40
1.0
 40
1.0
 40
1.0
 40
1.0
 10
389.1638948357411
 20
138.4358834609401
 30
0.0
 10
389.1638948357411
 20
138.2718255291599
 30
0.0
 10
389.1638948357411
 20
138.1077675973797
 30
0.0
 10
389.1638948357411
 20
137.9437096655995
 30
0.0
  0
SPLINE
  5
1AE
330
1F
100
AcDbEntity
  8
1
  6
Continuous
 62
    30
370
    18
100
AcDbSpline
210
0.0
220
0.0
230
1.0
 70
    24
 71
     3
 72
     8
 73
     4
 74
     0
 42
0.000000001
 43
0.0000000001
 40
0.0
 40
0.0
 40
0.0
 40
0.0
 40
1.0
 40
1.0
 40
1.0
 40
1.0
 10
371.1638948357411
 20
157.063040884726
 30
0.0
 10
371.1638948357411
 20
157.1240434955452
 30
0.0
 10
371.1638948357411
 20
157.1850461063644
 30
0.0
 10
371.1638948357411
 20
157.2460487171836
 30
0.0
  0
SPLINE
  5
1AF
330
1F
100
AcDbEntity
  8
1
  6
Continuous
 62
    30
370
    18
100
AcDbSpline
210
0.0
220
0.0
230
1.0
 70
    24
 71
     3
 72
     8
 73
     4
 74
     0
 42
0.000000001
 43
0.0000000001
 40
0.0
 40
0.0
 40
0.0
 40
0.0
 40
1.0
 40
1.0
 40
1.0
 40
1.0
 10
371.1638948357411
 20
157.2460487171836
 30
0.0
 10
371.1638948357411
 20
157.4101066489638
 30
0.0
 10
371.1638948357411
 20
157.574164580744
 30
0.0
 10
371.1638948357411
 20
157.7382225125242
 30
0.0
  0
SPLINE
  5
1B0
330
1F
100
AcDbEntity
  8
1
  6
Continuous
 62
    30
370
    18
100
AcDbSpline
210
0.0
220
0.0
230
1.0
 70
    24
 71
     3
 72
     8
 73
     4
 74
     0
 42
0.000000001
 43
0.0000000001
 40
0.0
 40
0.0
 40
0.0
 40
0.0
 40
1.0
 40
1.0
 40
1.0
 40
1.0
 10
389.1638948357411
 20
138.6188912933977
 30
0.0
 10
389.1638948357411
 20
138.5578886825785
 30
0.0
 10
389.1638948357411
 20
138.4968860717593
 30
0.0
 10
389.1638948357411
 20
138.4358834609401
 30
0.0
  0
SPLINE
  5
1B1
330
1F
100
AcDbEntity
  8
1
  6
Continuous
 62
    30
370
    18
100
AcDbSpline
210
0.0
220
0.0
230
1.0
 70
    24
 71
     3
 72
     8
 73
     4
 74
     0
 42
0.000000001
 43
0.0000000001
 40
0.0
 40
0.0
 40
0.0
 40
0.0
 40
1.0
 40
1.0
 40
1.0
 40
1.0
 10
389.1638948357411
 20
139.3261979366742
 30
0.0
 10
389.1638948357411
 20
138.9218720956507
 30
0.0
 10
389.1638948357411
 20
138.6894819820322
 30
0.0
 10
389.1638948357411
 20
138.631280107468
 30
0.0
  0
SPLINE
  5
1B2
330
1F
100
AcDbEntity
  8
1
  6
Continuous
 62
    30
370
    18
100
AcDbSpline
210
0.0
220
0.0
230
1.0
 70
    24
 71
     3
 72
     8
 73
     4
 74
     0
 42
0.000000001
 43
0.0000000001
 40
0.0
 40
0.0
 40
0.0
 40
0.0
 40
1.0
 40
1.0
 40
1.0
 40
1.0
 10
371.1638948357411
 20
156.3557342414495
 30
0.0
 10
371.1638948357411
 20
156.760060082473
 30
0.0
 10
371.1638948357411
 20
156.9924501960914
 30
0.0
 10
371.1638948357411
 20
157.0506520706556
 30
0.0
  0
SPLINE
  5
1B3
330
1F
100
AcDbEntity
  8
1
  6
Continuous
 62
    30
370
    18
100
AcDbSpline
210
0.0
220
0.0
230
1.0
 70
    24
 71
     3
 72
     8
 73
     4
 74
     0
 42
0.000000001
 43
0.0000000001
 40
0.0
 40
0.0
 40
0.0
 40
0.0
 40
1.0
 40
1.0
 40
1.0
 40
1.0
 10
371.1638948357411
 20
139.0696477412747
 30
0.0
 10
371.1638948357411
 20
139.1332016095665
 30
0.0
 10
371.1638948357411
 20
139.2028004878471
 30
0.0
 10
371.1638948357411
 20
139.2784397412746
 30
0.0
  0
SPLINE
  5
1B4
330
1F
100
AcDbEntity
  8
1
  6
Continuous
 62
    30
370
    18
100
AcDbSpline
210
0.0
220
0.0
230
1.0
 70
    24
 71
     3
 72
     8
 73
     4
 74
     0
 42
0.000000001
 43
0.0000000001
 40
0.0
 40
0.0
 40
0.0
 40
0.0
 40
1.0
 40
1.0
 40
1.0
 40
1.0
 10
389.1638948357411
 20
156.6122844367909
 30
0.0
 10
389.1638948357411
 20
156.5487305684984
 30
0.0
 10
389.1638948357411
 20
156.4791316902178
 30
0.0
 10
389.1638948357411
 20
156.4034924367909
 30
0.0
  0
SPLINE
  5
1B5
330
1F
100
AcDbEntity
  8
1
  6
Continuous
 62
    30
370
    13
100
AcDbSpline
210
0.0
220
0.0
230
1.0
 70
     8
 71
     3
 72
    49
 73
    45
 74
     0
 42
0.000000001
 43
0.0000000001
 40
0.0
 40
0.0
 40
0.0
 40
0.0
 40
0.0216161634342743
 40
0.0216161634342743
 40
0.0521906583269527
 40
0.0521906583269527
 40
0.0827651532196314
 40
0.0827651532196314
 40
0.1439141430049898
 40
0.1439141430049898
 40
0.2662121225757059
 40
0.2662121225757059
 40
0.388510102146422
 40
0.388510102146422
 40
0.4496590919317805
 40
0.4496590919317805
 40
0.4802335868244605
 40
0.4802335868244605
 40
0.4955208342708006
 40
0.4955208342708006
 40
0.5108080817171409
 40
0.5108080817171409
 40
0.5719570715025001
 40
0.5719570715025001
 40
0.6331060612878593
 40
0.6331060612878593
 40
0.6942550510732188
 40
0.6942550510732188
 40
0.7248295459658983
 40
0.7401167934122388
 40
0.7401167934122388
 40
0.7554040408585796
 40
0.7554040408585796
 40
0.7859785357512586
 40
0.7859785357512586
 40
0.8012657831975982
 40
0.8012657831975982
 40
0.8165530306439379
 40
0.8165530306439379
 40
0.8777020204292919
 40
0.8777020204292919
 40
0.938851010214646
 40
0.938851010214646
 40
1.0
 40
1.0
 40
1.0
 40
1.0
 10
392.1146320254198
 20
139.3370980656161
 30
0.0
 10
392.0786830767245
 20
139.2754984981591
 30
0.0
 10
392.0428026549359
 20
139.2139711710378
 30
0.0
 10
391.9563418404837
 20
139.0655952073885
 30
0.0
 10
391.9058324284969
 20
138.9788204753899
 30
0.0
 10
391.8051091971096
 20
138.805574314245
 30
0.0
 10
391.7549998556284
 20
138.7192825753453
 30
0.0
 10
391.6054540188748
 20
138.4614267950244
 30
0.0
 10
391.5067978926051
 20
138.2908796438123
 30
0.0
 10
391.2141657702533
 20
137.7835099606046
 30
0.0
 10
391.0235066902895
 20
137.4509398524315
 30
0.0
 10
390.6525657553379
 20
136.7986165195143
 30
0.0
 10
390.472269757024
 20
136.4788501114878
 30
0.0
 10
390.2113201732701
 20
136.010476296564
 30
0.0
 10
390.1259266280782
 20
135.8562380835733
 30
0.0
 10
390.0005276492582
 20
135.6280076835347
 30
0.0
 10
389.9591773091054
 20
135.5524527663968
 30
0.0
 10
389.8978722736138
 20
135.4399481123383
 30
0.0
 10
389.8775607161331
 20
135.4025905060244
 30
0.0
 10
389.8372941026338
 20
135.3283587119571
 30
0.0
 10
389.8173255647312
 20
135.2914598125625
 30
0.0
 10
389.7183257735597
 20
135.1080709309328
 30
0.0
 10
389.6418179412016
 20
134.9648920732511
 30
0.0
 10
389.4947534316721
 20
134.6862132628313
 30
0.0
 10
389.4241949886469
 20
134.5507114933735
 30
0.0
 10
389.2897556023401
 20
134.2881726474159
 30
0.0
 10
389.2258718809006
 20
134.1611327360211
 30
0.0
 10
389.1357700225362
 20
133.9776919982352
 30
0.0
 10
389.0921530703836
 20
133.8877546291068
 30
0.0
 10
389.0508555818424
 20
133.8006722137782
 30
0.0
 10
389.0238609478446
 20
133.7432747395726
 30
0.0
 10
389.0106239135251
 20
133.7148870067292
 30
0.0
 10
388.9718131101134
 20
133.6308782231
 30
0.0
 10
388.9471661840246
 20
133.5764712455183
 30
0.0
 10
388.9121524828971
 20
133.4973857998637
 30
0.0
 10
388.900799460474
 20
133.4714259820885
 30
0.0
 10
388.8788295338585
 20
133.4205166405668
 30
0.0
 10
388.8682075569509
 20
133.3955561735865
 30
0.0
 10
388.8169465629719
 20
133.2732593238118
 30
0.0
 10
388.7818430062092
 20
133.1834274986565
 30
0.0
 10
388.7244848985232
 20
133.0208382962672
 30
0.0
 10
388.7022266961422
 20
132.9480775214026
 30
0.0
 10
388.6719345934198
 20
132.8210445641979
 30
0.0
 10
388.6638948357411
 20
132.766767024707
 30
0.0
 10
388.6638948357411
 20
132.722682456321
 30
0.0
  0
SPLINE
  5
1B6
330
1F
100
AcDbEntity
  8
1
  6
Continuous
 62
    30
370
    13
100
AcDbSpline
210
0.0
220
0.0
230
1.0
 70
     8
 71
     3
 72
    49
 73
    45
 74
     0
 42
0.000000001
 43
0.0000000001
 40
0.0
 40
0.0
 40
0.0
 40
0.0
 40
0.0611489897841846
 40
0.0611489897841846
 40
0.1222979795683692
 40
0.1222979795683692
 40
0.1834469693525537
 40
0.1834469693525537
 40
0.198734216798601
 40
0.198734216798601
 40
0.2140214642446482
 40
0.2140214642446482
 40
0.2445959591367428
 40
0.2445959591367428
 40
0.259883206582791
 40
0.259883206582791
 40
0.2751704540288392
 40
0.305744948920934
 40
0.305744948920934
 40
0.3668939387051233
 40
0.3668939387051233
 40
0.4280429284893127
 40
0.4280429284893127
 40
0.4891919182735021
 40
0.4891919182735021
 40
0.5044791657195496
 40
0.5044791657195496
 40
0.5197664131655974
 40
0.5197664131655974
 40
0.5503409080576923
 40
0.5503409080576923
 40
0.611489897841881
 40
0.611489897841881
 40
0.733787877410257
 40
0.733787877410257
 40
0.8560858569786329
 40
0.8560858569786329
 40
0.9172348467628214
 40
0.9172348467628214
 40
0.9478093416549151
 40
0.9478093416549151
 40
0.9783838365470089
 40
0.9783838365470089
 40
1.0
 40
1.0
 40
1.0
 40
1.0
 10
388.6638948357411
 20
162.9592497218027
 30
0.0
 10
388.6638948357411
 20
162.9151651534166
 30
0.0
 10
388.6719345934198
 20
162.8608876139258
 30
0.0
 10
388.7022266961422
 20
162.7338546567211
 30
0.0
 10
388.7244848985232
 20
162.6610938818565
 30
0.0
 10
388.7818430062092
 20
162.4985046794671
 30
0.0
 10
388.8169465629719
 20
162.4086728543118
 30
0.0
 10
388.8682075569509
 20
162.2863760045371
 30
0.0
 10
388.8788295338585
 20
162.2614155375568
 30
0.0
 10
388.900799460474
 20
162.2105061960351
 30
0.0
 10
388.9121524828971
 20
162.1845463782599
 30
0.0
 10
388.9471661840246
 20
162.1054609326054
 30
0.0
 10
388.9718131101134
 20
162.0510539550236
 30
0.0
 10
389.0106239135251
 20
161.9670451713944
 30
0.0
 10
389.0238609478446
 20
161.9386574385511
 30
0.0
 10
389.0508555818424
 20
161.8812599643454
 30
0.0
 10
389.0921530703836
 20
161.7941775490169
 30
0.0
 10
389.1357700225362
 20
161.7042401798884
 30
0.0
 10
389.2258718809006
 20
161.5207994421026
 30
0.0
 10
389.2897556023401
 20
161.3937595307077
 30
0.0
 10
389.4241949886469
 20
161.1312206847501
 30
0.0
 10
389.4947534316721
 20
160.9957189152923
 30
0.0
 10
389.6418179412016
 20
160.7170401048726
 30
0.0
 10
389.7183257735597
 20
160.5738612471908
 30
0.0
 10
389.8173255647312
 20
160.3904723655612
 30
0.0
 10
389.8372941026338
 20
160.3535734661666
 30
0.0
 10
389.8775607161331
 20
160.2793416720992
 30
0.0
 10
389.8978722736138
 20
160.2419840657854
 30
0.0
 10
389.9591773091054
 20
160.1294794117269
 30
0.0
 10
390.0005276492582
 20
160.053924494589
 30
0.0
 10
390.1259266280782
 20
159.8256940945503
 30
0.0
 10
390.2113201732701
 20
159.6714558815596
 30
0.0
 10
390.472269757024
 20
159.2030820666359
 30
0.0
 10
390.6525657553379
 20
158.8833156586093
 30
0.0
 10
391.0235066902895
 20
158.2309923256921
 30
0.0
 10
391.2141657702533
 20
157.8984222175191
 30
0.0
 10
391.5067978926051
 20
157.3910525343114
 30
0.0
 10
391.6054540188748
 20
157.2205053830993
 30
0.0
 10
391.7549998556284
 20
156.9626496027784
 30
0.0
 10
391.8051091971096
 20
156.8763578638786
 30
0.0
 10
391.9058324284969
 20
156.7031117027337
 30
0.0
 10
391.9563418404837
 20
156.6163369707352
 30
0.0
 10
392.0428026549676
 20
156.4679610070315
 30
0.0
 10
392.078683076788
 20
156.4064336798556
 30
0.0
 10
392.1146320255151
 20
156.3448341123439
 30
0.0
  0
ENDSEC
  0
SECTION
  2
OBJECTS
  0
DICTIONARY
  5
C
330
0
100
AcDbDictionary
281
     1
  3
ACAD_DETAILVIEWSTYLE
350
20B
  3
ACAD_GROUP
350
D
  3
ACAD_LAYOUT
350
1A
  3
ACAD_MATERIAL
350
43
  3
ACAD_MLEADERSTYLE
350
6B
  3
ACAD_MLINESTYLE
350
17
  3
ACAD_PLOTSETTINGS
350
19
  3
ACAD_PLOTSTYLENAME
350
E
  3
ACAD_SCALELIST
350
47
  3
ACAD_SECTIONVIEWSTYLE
350
20C
  3
ACAD_TABLESTYLE
350
69
  3
ACAD_VISUALSTYLE
350
2A
  3
ACDB_RECOMPOSE_DATA
350
208
  3
AcDbVariableDictionary
350
1C8
  0
DICTIONARY
  5
1C6
330
8
100
AcDbDictionary
280
     1
281
     1
  3
ACAD_XREC_ROUNDTRIP
360
1C7
  0
DICTIONARY
  5
20B
102
{ACAD_REACTORS
330
C
102
}
330
C
100
AcDbDictionary
281
     1
  0
DICTIONARY
  5
D
102
{ACAD_REACTORS
330
C
102
}
330
C
100
AcDbDictionary
281
     1
  0
DICTIONARY
  5
1A
102
{ACAD_REACTORS
330
C
102
}
330
C
100
AcDbDictionary
281
     1
  3
Layout1
350
1E
  3
Layout2
350
26
  3
Model
350
22
  0
DICTIONARY
  5
43
102
{ACAD_REACTORS
330
C
102
}
330
C
100
AcDbDictionary
281
     1
  3
ByBlock
350
45
  3
ByLayer
350
44
  3
Global
350
46
  0
DICTIONARY
  5
6B
102
{ACAD_REACTORS
330
C
102
}
330
C
100
AcDbDictionary
281
     1
  3
Standard
350
6C
  0
DICTIONARY
  5
17
102
{ACAD_REACTORS
330
C
102
}
330
C
100
AcDbDictionary
281
     1
  3
Standard
350
18
  0
DICTIONARY
  5
19
102
{ACAD_REACTORS
330
C
102
}
330
C
100
AcDbDictionary
281
     1
  0
ACDBDICTIONARYWDFLT
  5
E
102
{ACAD_REACTORS
330
C
102
}
330
C
100
AcDbDictionary
281
     1
  3
Normal
350
F
100
AcDbDictionaryWithDefault
340
F
  0
DICTIONARY
  5
47
102
{ACAD_REACTORS
330
C
102
}
330
C
100
AcDbDictionary
281
     1
  3
A0
350
48
  3
A1
350
49
  3
A2
350
4A
  3
A3
350
4B
  3
A4
350
4C
  3
A5
350
4D
  3
A6
350
4E
  3
A7
350
4F
  3
A8
350
50
  3
A9
350
51
  3
B0
350
52
  3
B1
350
53
  3
B2
350
54
  3
B3
350
55
  3
B4
350
56
  3
B5
350
57
  3
B6
350
58
  3
B7
350
59
  3
B8
350
5A
  3
B9
350
5B
  3
C0
350
5C
  3
C1
350
5D
  3
C2
350
5E
  3
C3
350
5F
  3
C4
350
60
  3
C5
350
61
  3
C6
350
62
  3
C7
350
63
  3
C8
350
64
  3
C9
350
65
  3
D0
350
66
  3
D1
350
67
  3
D2
350
68
  0
DICTIONARY
  5
20C
102
{ACAD_REACTORS
330
C
102
}
330
C
100
AcDbDictionary
281
     1
  0
DICTIONARY
  5
69
102
{ACAD_REACTORS
330
C
102
}
330
C
100
AcDbDictionary
281
     1
  3
Standard
350
6A
  0
DICTIONARY
  5
2A
102
{ACAD_REACTORS
330
C
102
}
330
C
100
AcDbDictionary
281
     1
  3
2dWireframe
350
2F
  3
Basic
350
32
  3
Brighten
350
36
  3
ColorChange
350
3A
  3
Conceptual
350
34
  3
Dim
350
35
  3
EdgeColorOff
350
3D
  3
Facepattern
350
39
  3
Flat
350
2B
  3
FlatWithEdges
350
2C
  3
Gouraud
350
2D
  3
GouraudWithEdges
350
2E
  3
Hidden
350
31
  3
JitterOff
350
3B
  3
Linepattern
350
38
  3
OverhangOff
350
3C
  3
Realistic
350
33
  3
Shaded
350
42
  3
Shaded with edges
350
41
  3
Shades of Gray
350
3E
  3
Sketchy
350
3F
  3
Thicken
350
37
  3
Wireframe
350
30
  3
X-Ray
350
40
  0
XRECORD
  5
208
102
{ACAD_REACTORS
330
C
102
}
330
C
100
AcDbXrecord
280
     1
 90
        1
330
6A
  0
DICTIONARY
  5
1C8
102
{ACAD_REACTORS
330
C
102
}
330
C
100
AcDbDictionary
281
     1
  3
CANNOSCALE
350
1C9
  3
CMLEADERSTYLE
350
20A
  3
CTABLESTYLE
350
209
  3
MSLTSCALE
350
1CA
  3
XCLIPFRAME
350
1CB
  0
XRECORD
  5
1C7
102
{ACAD_REACTORS
330
1C6
102
}
330
1C6
100
AcDbXrecord
280
     1
102
VTR_0.000_0.000_1.000_1.000_VISUALSTYLE
340
2F
102
VTR_0.000_0.000_1.000_1.000_GRIDDISPLAY
 70
     3
102
VTR_0.000_0.000_1.000_1.000_GRIDMAJOR
 70
     5
102
VTR_0.000_0.000_1.000_1.000_DEFAULTLIGHTING
280
     1
102
VTR_0.000_0.000_1.000_1.000_DEFAULTLIGHTINGTYPE
 70
     1
102
VTR_0.000_0.000_1.000_1.000_BRIGHTNESS
141
0.0
102
VTR_0.000_0.000_1.000_1.000_CONTRAST
142
0.0
102
VTR_0.000_0.000_0.500_1.000_VISUALSTYLE
340
2F
102
VTR_0.000_0.000_0.500_1.000_GRIDDISPLAY
 70
     3
102
VTR_0.000_0.000_0.500_1.000_GRIDMAJOR
 70
     5
102
VTR_0.000_0.000_0.500_1.000_DEFAULTLIGHTING
280
     1
102
VTR_0.000_0.000_0.500_1.000_DEFAULTLIGHTINGTYPE
 70
     1
102
VTR_0.000_0.000_0.500_1.000_BRIGHTNESS
141
0.0
102
VTR_0.000_0.000_0.500_1.000_CONTRAST
142
0.0
102
VTR_0.500_0.000_1.000_1.000_VISUALSTYLE
340
2F
102
VTR_0.500_0.000_1.000_1.000_GRIDDISPLAY
 70
     3
102
VTR_0.500_0.000_1.000_1.000_GRIDMAJOR
 70
     5
102
VTR_0.500_0.000_1.000_1.000_DEFAULTLIGHTING
280
     1
102
VTR_0.500_0.000_1.000_1.000_DEFAULTLIGHTINGTYPE
 70
     1
102
VTR_0.500_0.000_1.000_1.000_BRIGHTNESS
141
0.0
102
VTR_0.500_0.000_1.000_1.000_CONTRAST
142
0.0
102
VTR_0.000_0.500_1.000_1.000_VISUALSTYLE
340
2F
102
VTR_0.000_0.500_1.000_1.000_GRIDDISPLAY
 70
     3
102
VTR_0.000_0.500_1.000_1.000_GRIDMAJOR
 70
     5
102
VTR_0.000_0.500_1.000_1.000_DEFAULTLIGHTING
280
     1
102
VTR_0.000_0.500_1.000_1.000_DEFAULTLIGHTINGTYPE
 70
     1
102
VTR_0.000_0.500_1.000_1.000_BRIGHTNESS
141
0.0
102
VTR_0.000_0.500_1.000_1.000_CONTRAST
142
0.0
102
VTR_0.000_0.000_1.000_0.500_VISUALSTYLE
340
2F
102
VTR_0.000_0.000_1.000_0.500_GRIDDISPLAY
 70
     3
102
VTR_0.000_0.000_1.000_0.500_GRIDMAJOR
 70
     5
102
VTR_0.000_0.000_1.000_0.500_DEFAULTLIGHTING
280
     1
102
VTR_0.000_0.000_1.000_0.500_DEFAULTLIGHTINGTYPE
 70
     1
102
VTR_0.000_0.000_1.000_0.500_BRIGHTNESS
141
0.0
102
VTR_0.000_0.000_1.000_0.500_CONTRAST
142
0.0
102
VTR_0.000_0.500_0.500_1.000_VISUALSTYLE
340
2F
102
VTR_0.000_0.500_0.500_1.000_GRIDDISPLAY
 70
     3
102
VTR_0.000_0.500_0.500_1.000_GRIDMAJOR
 70
     5
102
VTR_0.000_0.500_0.500_1.000_DEFAULTLIGHTING
280
     1
102
VTR_0.000_0.500_0.500_1.000_DEFAULTLIGHTINGTYPE
 70
     1
102
VTR_0.000_0.500_0.500_1.000_BRIGHTNESS
141
0.0
102
VTR_0.000_0.500_0.500_1.000_CONTRAST
142
0.0
102
VTR_0.000_0.000_0.500_0.500_VISUALSTYLE
340
2F
102
VTR_0.000_0.000_0.500_0.500_GRIDDISPLAY
 70
     3
102
VTR_0.000_0.000_0.500_0.500_GRIDMAJOR
 70
     5
102
VTR_0.000_0.000_0.500_0.500_DEFAULTLIGHTING
280
     1
102
VTR_0.000_0.000_0.500_0.500_DEFAULTLIGHTINGTYPE
 70
     1
102
VTR_0.000_0.000_0.500_0.500_BRIGHTNESS
141
0.0
102
VTR_0.000_0.000_0.500_0.500_CONTRAST
142
0.0
102
VTR_0.500_0.000_1.000_0.500_VISUALSTYLE
340
2F
102
VTR_0.500_0.000_1.000_0.500_GRIDDISPLAY
 70
     3
102
VTR_0.500_0.000_1.000_0.500_GRIDMAJOR
 70
     5
102
VTR_0.500_0.000_1.000_0.500_DEFAULTLIGHTING
280
     1
102
VTR_0.500_0.000_1.000_0.500_DEFAULTLIGHTINGTYPE
 70
     1
102
VTR_0.500_0.000_1.000_0.500_BRIGHTNESS
141
0.0
102
VTR_0.500_0.000_1.000_0.500_CONTRAST
142
0.0
102
VTR_0.500_0.500_1.000_1.000_VISUALSTYLE
340
2F
102
VTR_0.500_0.500_1.000_1.000_GRIDDISPLAY
 70
     3
102
VTR_0.500_0.500_1.000_1.000_GRIDMAJOR
 70
     5
102
VTR_0.500_0.500_1.000_1.000_DEFAULTLIGHTING
280
     1
102
VTR_0.500_0.500_1.000_1.000_DEFAULTLIGHTINGTYPE
 70
     1
102
VTR_0.500_0.500_1.000_1.000_BRIGHTNESS
141
0.0
102
VTR_0.500_0.500_1.000_1.000_CONTRAST
142
0.0
102
VTR_0.000_0.500_0.333_1.000_VISUALSTYLE
340
2F
102
VTR_0.000_0.500_0.333_1.000_GRIDDISPLAY
 70
     3
102
VTR_0.000_0.500_0.333_1.000_GRIDMAJOR
 70
     5
102
VTR_0.000_0.500_0.333_1.000_DEFAULTLIGHTING
280
     1
102
VTR_0.000_0.500_0.333_1.000_DEFAULTLIGHTINGTYPE
 70
     1
102
VTR_0.000_0.500_0.333_1.000_BRIGHTNESS
141
0.0
102
VTR_0.000_0.500_0.333_1.000_CONTRAST
142
0.0
102
VTR_0.000_0.000_0.333_0.500_VISUALSTYLE
340
2F
102
VTR_0.000_0.000_0.333_0.500_GRIDDISPLAY
 70
     3
102
VTR_0.000_0.000_0.333_0.500_GRIDMAJOR
 70
     5
102
VTR_0.000_0.000_0.333_0.500_DEFAULTLIGHTING
280
     1
102
VTR_0.000_0.000_0.333_0.500_DEFAULTLIGHTINGTYPE
 70
     1
102
VTR_0.000_0.000_0.333_0.500_BRIGHTNESS
141
0.0
102
VTR_0.000_0.000_0.333_0.500_CONTRAST
142
0.0
102
VTR_0.333_0.500_0.667_1.000_VISUALSTYLE
340
2F
102
VTR_0.333_0.500_0.667_1.000_GRIDDISPLAY
 70
     3
102
VTR_0.333_0.500_0.667_1.000_GRIDMAJOR
 70
     5
102
VTR_0.333_0.500_0.667_1.000_DEFAULTLIGHTING
280
     1
102
VTR_0.333_0.500_0.667_1.000_DEFAULTLIGHTINGTYPE
 70
     1
102
VTR_0.333_0.500_0.667_1.000_BRIGHTNESS
141
0.0
102
VTR_0.333_0.500_0.667_1.000_CONTRAST
142
0.0
102
VTR_0.333_0.000_0.667_0.500_VISUALSTYLE
340
2F
102
VTR_0.333_0.000_0.667_0.500_GRIDDISPLAY
 70
     3
102
VTR_0.333_0.000_0.667_0.500_GRIDMAJOR
 70
     5
102
VTR_0.333_0.000_0.667_0.500_DEFAULTLIGHTING
280
     1
102
VTR_0.333_0.000_0.667_0.500_DEFAULTLIGHTINGTYPE
 70
     1
102
VTR_0.333_0.000_0.667_0.500_BRIGHTNESS
141
0.0
102
VTR_0.333_0.000_0.667_0.500_CONTRAST
142
0.0
102
VTR_0.667_0.500_1.000_1.000_VISUALSTYLE
340
2F
102
VTR_0.667_0.500_1.000_1.000_GRIDDISPLAY
 70
     3
102
VTR_0.667_0.500_1.000_1.000_GRIDMAJOR
 70
     5
102
VTR_0.667_0.500_1.000_1.000_DEFAULTLIGHTING
280
     1
102
VTR_0.667_0.500_1.000_1.000_DEFAULTLIGHTINGTYPE
 70
     1
102
VTR_0.667_0.500_1.000_1.000_BRIGHTNESS
141
0.0
102
VTR_0.667_0.500_1.000_1.000_CONTRAST
142
0.0
102
VTR_0.667_0.000_1.000_0.500_VISUALSTYLE
340
2F
102
VTR_0.667_0.000_1.000_0.500_GRIDDISPLAY
 70
     3
102
VTR_0.667_0.000_1.000_0.500_GRIDMAJOR
 70
     5
102
VTR_0.667_0.000_1.000_0.500_DEFAULTLIGHTING
280
     1
102
VTR_0.667_0.000_1.000_0.500_DEFAULTLIGHTINGTYPE
 70
     1
102
VTR_0.667_0.000_1.000_0.500_BRIGHTNESS
141
0.0
102
VTR_0.667_0.000_1.000_0.500_CONTRAST
142
0.0
  0
LAYOUT
  5
1E
102
{ACAD_REACTORS
330
1A
102
}
330
1A
100
AcDbPlotSettings
  1

  2
none_device
  4

  6

 40
0.0
 41
0.0
 42
0.0
 43
0.0
 44
0.0
 45
0.0
 46
0.0
 47
0.0
 48
0.0
 49
0.0
140
0.0
141
0.0
142
1.0
143
1.0
 70
   688
 72
     0
 73
     0
 74
     5
  7

 75
    16
 76
     0
 77
     2
 78
   300
147
1.0
148
0.0
149
0.0
100
AcDbLayout
  1
Layout1
 70
     1
 71
     1
 10
-0.5
 20
-0.5
 11
5.0
 21
5.0
 12
0.0
 22
0.0
 32
0.0
 14
-0.5
 24
-0.5
 34
-0.5
 15
5.0
 25
5.0
 35
5.0
146
0.0
 13
0.0
 23
0.0
 33
0.0
 16
1.0
 26
0.0
 36
0.0
 17
0.0
 27
1.0
 37
0.0
 76
     0
330
1B
  0
LAYOUT
  5
26
102
{ACAD_REACTORS
330
1A
102
}
330
1A
100
AcDbPlotSettings
  1

  2
none_device
  4

  6

 40
0.0
 41
0.0
 42
0.0
 43
0.0
 44
0.0
 45
0.0
 46
0.0
 47
0.0
 48
0.0
 49
0.0
140
0.0
141
0.0
142
1.0
143
1.0
 70
   688
 72
     0
 73
     0
 74
     5
  7

 75
    16
 76
     0
 77
     2
 78
   300
147
1.0
148
0.0
149
0.0
100
AcDbLayout
  1
Layout2
 70
     1
 71
     2
 10
0.0
 20
0.0
 11
0.0
 21
0.0
 12
0.0
 22
0.0
 32
0.0
 14
0.0
 24
0.0
 34
0.0
 15
0.0
 25
0.0
 35
0.0
146
0.0
 13
0.0
 23
0.0
 33
0.0
 16
1.0
 26
0.0
 36
0.0
 17
0.0
 27
1.0
 37
0.0
 76
     0
330
23
  0
LAYOUT
  5
22
102
{ACAD_REACTORS
330
1A
102
}
330
1A
100
AcDbPlotSettings
  1

  2
none_device
  4
Letter_(8.50_x_11.00_Inches)
  6

 40
6.35
 41
6.35
 42
6.350005
 43
6.350005
 44
215.9
 45
279.4
 46
0.0
 47
0.0
 48
0.0
 49
0.0
140
0.0
141
0.0
142
1.0
143
1.0
 70
  1712
 72
     0
 73
     0
 74
     0
  7

 75
     0
 76
     0
 77
     2
 78
   300
147
1.0
148
0.0
149
0.0
100
AcDbLayout
  1
Model
 70
     1
 71
     0
 10
-0.5
 20
-0.5
 11
5.0
 21
5.0
 12
0.0
 22
0.0
 32
0.0
 14
-0.5
 24
-0.5
 34
-0.5
 15
5.0
 25
5.0
 35
5.0
146
0.0
 13
0.0
 23
0.0
 33
0.0
 16
1.0
 26
0.0
 36
0.0
 17
0.0
 27
1.0
 37
0.0
 76
     0
330
1F
331
29
  0
MATERIAL
  5
45
102
{ACAD_REACTORS
330
43
102
}
102
{ACAD_XDICTIONARY
360
1FE
102
}
330
43
100
AcDbMaterial
  1
ByBlock
  0
MATERIAL
  5
44
102
{ACAD_REACTORS
330
43
102
}
102
{ACAD_XDICTIONARY
360
1FC
102
}
330
43
100
AcDbMaterial
  1
ByLayer
  0
MATERIAL
  5
46
102
{ACAD_REACTORS
330
43
102
}
102
{ACAD_XDICTIONARY
360
200
102
}
330
43
100
AcDbMaterial
  1
Global
  0
MLEADERSTYLE
  5
6C
102
{ACAD_REACTORS
330
6B
102
}
102
{ACAD_XDICTIONARY
360
206
102
}
330
6B
100
AcDbMLeaderStyle
170
     2
171
     1
172
     0
 90
        2
 40
0.0
 41
0.0
173
     1
 91
-1056964608
340
14
 92
       -2
290
     1
 42
0.09
291
     1
 43
0.36
  3
Standard
341
0
 44
0.18
300

342
11
174
     1
178
     6
175
     1
176
     0
 93
-1056964608
 45
0.18
292
     0
297
     0
 46
0.18
343
0
 94
-1056964608
 47
1.0
 49
1.0
140
1.0
293
     1
141
0.0
294
     1
177
     0
142
1.0
295
     0
296
     0
143
0.125
1001
ACAD_MLEADERVER
1070
     2
  0
MLINESTYLE
  5
18
102
{ACAD_REACTORS
330
17
102
}
330
17
100
AcDbMlineStyle
  2
Standard
 70
     0
  3

 62
   256
 51
90.0
 52
90.0
 71
     2
 49
0.5
 62
   256
  6
BYLAYER
 49
-0.5
 62
   256
  6
BYLAYER
  0
ACDBPLACEHOLDER
  5
F
102
{ACAD_REACTORS
330
E
102
}
330
E
  0
SCALE
  5
48
102
{ACAD_REACTORS
330
47
102
}
330
47
100
AcDbScale
 70
     0
300
1:1
140
1.0
141
1.0
290
     1
  0
SCALE
  5
49
102
{ACAD_REACTORS
330
47
102
}
330
47
100
AcDbScale
 70
     0
300
1:2
140
1.0
141
2.0
290
     0
  0
SCALE
  5
4A
102
{ACAD_REACTORS
330
47
102
}
330
47
100
AcDbScale
 70
     0
300
1:4
140
1.0
141
4.0
290
     0
  0
SCALE
  5
4B
102
{ACAD_REACTORS
330
47
102
}
330
47
100
AcDbScale
 70
     0
300
1:5
140
1.0
141
5.0
290
     0
  0
SCALE
  5
4C
102
{ACAD_REACTORS
330
47
102
}
330
47
100
AcDbScale
 70
     0
300
1:8
140
1.0
141
8.0
290
     0
  0
SCALE
  5
4D
102
{ACAD_REACTORS
330
47
102
}
330
47
100
AcDbScale
 70
     0
300
1:10
140
1.0
141
10.0
290
     0
  0
SCALE
  5
4E
102
{ACAD_REACTORS
330
47
102
}
330
47
100
AcDbScale
 70
     0
300
1:16
140
1.0
141
16.0
290
     0
  0
SCALE
  5
4F
102
{ACAD_REACTORS
330
47
102
}
330
47
100
AcDbScale
 70
     0
300
1:20
140
1.0
141
20.0
290
     0
  0
SCALE
  5
50
102
{ACAD_REACTORS
330
47
102
}
330
47
100
AcDbScale
 70
     0
300
1:30
140
1.0
141
30.0
290
     0
  0
SCALE
  5
51
102
{ACAD_REACTORS
330
47
102
}
330
47
100
AcDbScale
 70
     0
300
1:40
140
1.0
141
40.0
290
     0
  0
SCALE
  5
52
102
{ACAD_REACTORS
330
47
102
}
330
47
100
AcDbScale
 70
     0
300
1:50
140
1.0
141
50.0
290
     0
  0
SCALE
  5
53
102
{ACAD_REACTORS
330
47
102
}
330
47
100
AcDbScale
 70
     0
300
1:100
140
1.0
141
100.0
290
     0
  0
SCALE
  5
54
102
{ACAD_REACTORS
330
47
102
}
330
47
100
AcDbScale
 70
     0
300
2:1
140
2.0
141
1.0
290
     0
  0
SCALE
  5
55
102
{ACAD_REACTORS
330
47
102
}
330
47
100
AcDbScale
 70
     0
300
4:1
140
4.0
141
1.0
290
     0
  0
SCALE
  5
56
102
{ACAD_REACTORS
330
47
102
}
330
47
100
AcDbScale
 70
     0
300
8:1
140
8.0
141
1.0
290
     0
  0
SCALE
  5
57
102
{ACAD_REACTORS
330
47
102
}
330
47
100
AcDbScale
 70
     0
300
10:1
140
10.0
141
1.0
290
     0
  0
SCALE
  5
58
102
{ACAD_REACTORS
330
47
102
}
330
47
100
AcDbScale
 70
     0
300
100:1
140
100.0
141
1.0
290
     0
  0
SCALE
  5
59
102
{ACAD_REACTORS
330
47
102
}
330
47
100
AcDbScale
 70
     0
300
1/128" = 1'-0"
140
0.007812
141
12.0
290
     0
  0
SCALE
  5
5A
102
{ACAD_REACTORS
330
47
102
}
330
47
100
AcDbScale
 70
     0
300
1/64" = 1'-0"
140
0.015625
141
12.0
290
     0
  0
SCALE
  5
5B
102
{ACAD_REACTORS
330
47
102
}
330
47
100
AcDbScale
 70
     0
300
1/32" = 1'-0"
140
0.03125
141
12.0
290
     0
  0
SCALE
  5
5C
102
{ACAD_REACTORS
330
47
102
}
330
47
100
AcDbScale
 70
     0
300
1/16" = 1'-0"
140
0.0625
141
12.0
290
     0
  0
SCALE
  5
5D
102
{ACAD_REACTORS
330
47
102
}
330
47
100
AcDbScale
 70
     0
300
3/32" = 1'-0"
140
0.09375
141
12.0
290
     0
  0
SCALE
  5
5E
102
{ACAD_REACTORS
330
47
102
}
330
47
100
AcDbScale
 70
     0
300
1/8" = 1'-0"
140
0.125
141
12.0
290
     0
  0
SCALE
  5
5F
102
{ACAD_REACTORS
330
47
102
}
330
47
100
AcDbScale
 70
     0
300
3/16" = 1'-0"
140
0.1875
141
12.0
290
     0
  0
SCALE
  5
60
102
{ACAD_REACTORS
330
47
102
}
330
47
100
AcDbScale
 70
     0
300
1/4" = 1'-0"
140
0.25
141
12.0
290
     0
  0
SCALE
  5
61
102
{ACAD_REACTORS
330
47
102
}
330
47
100
AcDbScale
 70
     0
300
3/8" = 1'-0"
140
0.375
141
12.0
290
     0
  0
SCALE
  5
62
102
{ACAD_REACTORS
330
47
102
}
330
47
100
AcDbScale
 70
     0
300
1/2" = 1'-0"
140
0.5
141
12.0
290
     0
  0
SCALE
  5
63
102
{ACAD_REACTORS
330
47
102
}
330
47
100
AcDbScale
 70
     0
300
3/4" = 1'-0"
140
0.75
141
12.0
290
     0
  0
SCALE
  5
64
102
{ACAD_REACTORS
330
47
102
}
330
47
100
AcDbScale
 70
     0
300
1" = 1'-0"
140
1.0
141
12.0
290
     0
  0
SCALE
  5
65
102
{ACAD_REACTORS
330
47
102
}
330
47
100
AcDbScale
 70
     0
300
1-1/2" = 1'-0"
140
1.5
141
12.0
290
     0
  0
SCALE
  5
66
102
{ACAD_REACTORS
330
47
102
}
330
47
100
AcDbScale
 70
     0
300
3" = 1'-0"
140
3.0
141
12.0
290
     0
  0
SCALE
  5
67
102
{ACAD_REACTORS
330
47
102
}
330
47
100
AcDbScale
 70
     0
300
6" = 1'-0"
140
6.0
141
12.0
290
     0
  0
SCALE
  5
68
102
{ACAD_REACTORS
330
47
102
}
330
47
100
AcDbScale
 70
     0
300
1'-0" = 1'-0"
140
12.0
141
12.0
290
     0
  0
TABLESTYLE
  5
6A
102
{ACAD_REACTORS
330
69
102
}
102
{ACAD_XDICTIONARY
360
202
102
}
330
69
100
AcDbTableStyle
  3
Standard
 70
     0
 71
     0
 40
0.06
 41
0.06
280
     0
281
     0
  7
Standard
140
0.18
170
     2
 62
     0
 63
   257
283
     0
274
    -2
284
     1
 64
     0
275
    -2
285
     1
 65
     0
276
    -2
286
     1
 66
     0
277
    -2
287
     1
 67
     0
278
    -2
288
     1
 68
     0
279
    -2
289
     1
 69
     0
  7
Standard
140
0.25
170
     5
 62
     0
 63
   257
283
     0
274
    -2
284
     1
 64
     0
275
    -2
285
     1
 65
     0
276
    -2
286
     1
 66
     0
277
    -2
287
     1
 67
     0
278
    -2
288
     1
 68
     0
279
    -2
289
     1
 69
     0
  7
Standard
140
0.18
170
     5
 62
     0
 63
   257
283
     0
274
    -2
284
     1
 64
     0
275
    -2
285
     1
 65
     0
276
    -2
286
     1
 66
     0
277
    -2
287
     1
 67
     0
278
    -2
288
     1
 68
     0
279
    -2
289
     1
 69
     0
  0
VISUALSTYLE
  5
2F
102
{ACAD_REACTORS
330
2A
102
}
102
{ACAD_XDICTIONARY
360
1D4
102
}
330
2A
100
AcDbVisualStyle
  2
2dWireframe
 70
     4
 71
     0
 72
     2
 73
     0
 90
        0
 40
0.6
 41
30.0
 62
     5
 63
     7
421
 16777215
 74
     1
 91
        4
 64
     7
 65
   257
 75
     1
175
     1
 42
1.0
 92
        0
 66
   257
 43
1.0
 76
     1
 77
     6
 78
     2
 67
     7
 79
     5
170
     0
171
     0
290
     0
174
     0
 93
        1
 44
0.0
173
     0
291
     0
 45
0.0
1001
ACAD
1000
AcDbSavedByObjectVersion
1070
     0
  0
VISUALSTYLE
  5
32
102
{ACAD_REACTORS
330
2A
102
}
102
{ACAD_XDICTIONARY
360
1DA
102
}
330
2A
100
AcDbVisualStyle
  2
Basic
 70
     7
 71
     1
 72
     0
 73
     1
 90
        0
 40
0.6
 41
30.0
 62
     5
 63
     7
421
 16777215
 74
     0
 91
        4
 64
     7
 65
   257
 75
     1
175
     1
 42
1.0
 92
        8
 66
     7
 43
1.0
 76
     1
 77
     6
 78
     2
 67
     7
 79
     5
170
     0
171
     0
290
     0
174
     0
 93
        1
 44
0.0
173
     0
291
     1
 45
0.0
1001
ACAD
1000
AcDbSavedByObjectVersion
1070
     0
  0
VISUALSTYLE
  5
36
102
{ACAD_REACTORS
330
2A
102
}
102
{ACAD_XDICTIONARY
360
1E2
102
}
330
2A
100
AcDbVisualStyle
  2
Brighten
 70
    12
 71
     2
 72
     2
 73
     0
 90
        0
 40
0.6
 41
30.0
 62
     5
 63
     7
421
 16777215
 74
     1
 91
        4
 64
     7
 65
   257
 75
     1
175
     1
 42
1.0
 92
        8
 66
     7
 43
1.0
 76
     1
 77
     6
 78
     2
 67
     7
 79
     5
170
     0
171
     0
290
     0
174
     0
 93
        1
 44
50.0
173
     0
291
     1
 45
0.0
1001
ACAD
1000
AcDbSavedByObjectVersion
1070
     0
  0
VISUALSTYLE
  5
3A
102
{ACAD_REACTORS
330
2A
102
}
102
{ACAD_XDICTIONARY
360
1EA
102
}
330
2A
100
AcDbVisualStyle
  2
ColorChange
 70
    16
 71
     2
 72
     2
 73
     3
 90
        0
 40
0.6
 41
30.0
 62
     5
 63
     8
421
  8421504
 74
     1
 91
        4
 64
     7
 65
   257
 75
     1
175
     1
 42
1.0
 92
        8
 66
     8
424
  8421504
 43
1.0
 76
     1
 77
     6
 78
     2
 67
     7
 79
     5
170
     0
171
     0
290
     0
174
     0
 93
        1
 44
0.0
173
     0
291
     1
 45
0.0
1001
ACAD
1000
AcDbSavedByObjectVersion
1070
     0
  0
VISUALSTYLE
  5
34
102
{ACAD_REACTORS
330
2A
102
}
102
{ACAD_XDICTIONARY
360
1DE
102
}
330
2A
100
AcDbVisualStyle
  2
Conceptual
 70
     9
 71
     3
 72
     2
 73
     0
 90
        0
 40
0.6
 41
30.0
 62
     5
 63
     7
421
 16777215
 74
     2
 91
        2
 64
     7
 65
   257
 75
     1
175
     1
 42
179.0
 92
        8
 66
     7
 43
1.0
 76
     1
 77
     6
 78
     2
 67
     7
 79
     3
170
     0
171
     0
290
     0
174
     0
 93
        1
 44
0.0
173
     0
291
     0
 45
0.0
1001
ACAD
1000
AcDbSavedByObjectVersion
1070
     0
  0
VISUALSTYLE
  5
35
102
{ACAD_REACTORS
330
2A
102
}
102
{ACAD_XDICTIONARY
360
1E0
102
}
330
2A
100
AcDbVisualStyle
  2
Dim
 70
    11
 71
     2
 72
     2
 73
     0
 90
        0
 40
0.6
 41
30.0
 62
     5
 63
     7
421
 16777215
 74
     1
 91
        4
 64
     7
 65
   257
 75
     1
175
     1
 42
1.0
 92
        8
 66
     7
 43
1.0
 76
     1
 77
     6
 78
     2
 67
     7
 79
     5
170
     0
171
     0
290
     0
174
     0
 93
        1
 44
-50.0
173
     0
291
     1
 45
0.0
1001
ACAD
1000
AcDbSavedByObjectVersion
1070
     0
  0
VISUALSTYLE
  5
3D
102
{ACAD_REACTORS
330
2A
102
}
102
{ACAD_XDICTIONARY
360
1F0
102
}
330
2A
100
AcDbVisualStyle
  2
EdgeColorOff
 70
    22
 71
     2
 72
     2
 73
     0
 90
        0
 40
0.6
 41
30.0
 62
     5
 63
     7
421
 16777215
 74
     1
 91
        4
 64
     7
 65
   257
 75
     1
175
     1
 42
1.0
 92
        8
 66
     7
 43
1.0
 76
     1
 77
     6
 78
     2
 67
     7
 79
     5
170
     0
171
     0
290
     0
174
     0
 93
        1
 44
0.0
173
     0
291
     1
 45
0.0
1001
ACAD
1000
AcDbSavedByObjectVersion
1070
     0
  0
VISUALSTYLE
  5
39
102
{ACAD_REACTORS
330
2A
102
}
102
{ACAD_XDICTIONARY
360
1E8
102
}
330
2A
100
AcDbVisualStyle
  2
Facepattern
 70
    15
 71
     2
 72
     2
 73
     0
 90
        0
 40
0.6
 41
30.0
 62
     5
 63
     7
421
 16777215
 74
     1
 91
        4
 64
     7
 65
   257
 75
     1
175
     1
 42
1.0
 92
        8
 66
     7
 43
1.0
 76
     1
 77
     6
 78
     2
 67
     7
 79
     5
170
     0
171
     0
290
     0
174
     0
 93
        1
 44
0.0
173
     0
291
     1
 45
0.0
1001
ACAD
1000
AcDbSavedByObjectVersion
1070
     0
  0
VISUALSTYLE
  5
2B
102
{ACAD_REACTORS
330
2A
102
}
102
{ACAD_XDICTIONARY
360
1CC
102
}
330
2A
100
AcDbVisualStyle
  2
Flat
 70
     0
 71
     2
 72
     1
 73
     1
 90
        2
 40
0.6
 41
30.0
 62
     5
 63
     7
421
 16777215
 74
     0
 91
        0
 64
     7
 65
   257
 75
     1
175
     1
 42
1.0
 92
        8
 66
     7
 43
1.0
 76
     1
 77
     6
 78
     2
 67
     7
 79
     5
170
     0
171
     0
290
     0
174
     0
 93
       13
 44
0.0
173
     0
291
     1
 45
0.0
1001
ACAD
1000
AcDbSavedByObjectVersion
1070
     0
  0
VISUALSTYLE
  5
2C
102
{ACAD_REACTORS
330
2A
102
}
102
{ACAD_XDICTIONARY
360
1CE
102
}
330
2A
100
AcDbVisualStyle
  2
FlatWithEdges
 70
     1
 71
     2
 72
     1
 73
     1
 90
        2
 40
0.6
 41
30.0
 62
     5
 63
     7
421
 16777215
 74
     1
 91
        0
 64
     7
 65
   257
 75
     1
175
     1
 42
1.0
 92
        0
 66
   257
 43
1.0
 76
     1
 77
     6
 78
     2
 67
     7
 79
     5
170
     0
171
     0
290
     0
174
     0
 93
       13
 44
0.0
173
     0
291
     1
 45
0.0
1001
ACAD
1000
AcDbSavedByObjectVersion
1070
     0
  0
VISUALSTYLE
  5
2D
102
{ACAD_REACTORS
330
2A
102
}
102
{ACAD_XDICTIONARY
360
1D0
102
}
330
2A
100
AcDbVisualStyle
  2
Gouraud
 70
     2
 71
     2
 72
     2
 73
     1
 90
        2
 40
0.6
 41
30.0
 62
     5
 63
     7
421
 16777215
 74
     0
 91
        0
 64
     7
 65
   257
 75
     1
175
     1
 42
1.0
 92
        0
 66
     7
 43
1.0
 76
     1
 77
     6
 78
     2
 67
     7
 79
     5
170
     0
171
     0
290
     0
174
     0
 93
       13
 44
0.0
173
     0
291
     1
 45
0.0
1001
ACAD
1000
AcDbSavedByObjectVersion
1070
     0
  0
VISUALSTYLE
  5
2E
102
{ACAD_REACTORS
330
2A
102
}
102
{ACAD_XDICTIONARY
360
1D2
102
}
330
2A
100
AcDbVisualStyle
  2
GouraudWithEdges
 70
     3
 71
     2
 72
     2
 73
     1
 90
        2
 40
0.6
 41
30.0
 62
     5
 63
     7
421
 16777215
 74
     1
 91
        0
 64
     7
 65
   257
 75
     1
175
     1
 42
1.0
 92
        0
 66
   257
 43
1.0
 76
     1
 77
     6
 78
     2
 67
     7
 79
     5
170
     0
171
     0
290
     0
174
     0
 93
       13
 44
0.0
173
     0
291
     1
 45
0.0
1001
ACAD
1000
AcDbSavedByObjectVersion
1070
     0
  0
VISUALSTYLE
  5
31
102
{ACAD_REACTORS
330
2A
102
}
102
{ACAD_XDICTIONARY
360
1D8
102
}
330
2A
100
AcDbVisualStyle
  2
Hidden
 70
     6
 71
     1
 72
     2
 73
     2
 90
        0
 40
0.6
 41
30.0
 62
     5
 63
     7
421
 16777215
 74
     2
 91
        2
 64
     7
 65
   257
 75
     2
175
     1
 42
40.0
 92
        0
 66
   257
 43
1.0
 76
     1
 77
     6
 78
     2
 67
     7
 79
     3
170
     0
171
     0
290
     0
174
     0
 93
        1
 44
0.0
173
     0
291
     0
 45
0.0
1001
ACAD
1000
AcDbSavedByObjectVersion
1070
     0
  0
VISUALSTYLE
  5
3B
102
{ACAD_REACTORS
330
2A
102
}
102
{ACAD_XDICTIONARY
360
1EC
102
}
330
2A
100
AcDbVisualStyle
  2
JitterOff
 70
    20
 71
     2
 72
     2
 73
     0
 90
        0
 40
0.6
 41
30.0
 62
     5
 63
     7
421
 16777215
 74
     1
 91
        4
 64
     7
 65
   257
 75
     1
175
     1
 42
1.0
 92
       10
 66
     7
 43
1.0
 76
     1
 77
     6
 78
     2
 67
     7
 79
     5
170
     0
171
     0
290
     0
174
     0
 93
        1
 44
0.0
173
     0
291
     1
 45
0.0
1001
ACAD
1000
AcDbSavedByObjectVersion
1070
     0
  0
VISUALSTYLE
  5
38
102
{ACAD_REACTORS
330
2A
102
}
102
{ACAD_XDICTIONARY
360
1E6
102
}
330
2A
100
AcDbVisualStyle
  2
Linepattern
 70
    14
 71
     2
 72
     2
 73
     0
 90
        0
 40
0.6
 41
30.0
 62
     5
 63
     7
421
 16777215
 74
     1
 91
        4
 64
     7
 65
   257
 75
     7
175
     7
 42
1.0
 92
        8
 66
     7
 43
1.0
 76
     1
 77
     6
 78
     2
 67
     7
 79
     5
170
     0
171
     0
290
     0
174
     0
 93
        1
 44
0.0
173
     0
291
     1
 45
0.0
1001
ACAD
1000
AcDbSavedByObjectVersion
1070
     0
  0
VISUALSTYLE
  5
3C
102
{ACAD_REACTORS
330
2A
102
}
102
{ACAD_XDICTIONARY
360
1EE
102
}
330
2A
100
AcDbVisualStyle
  2
OverhangOff
 70
    21
 71
     2
 72
     2
 73
     0
 90
        0
 40
0.6
 41
30.0
 62
     5
 63
     7
421
 16777215
 74
     1
 91
        4
 64
     7
 65
   257
 75
     1
175
     1
 42
1.0
 92
        9
 66
     7
 43
1.0
 76
     1
 77
     6
 78
     2
 67
     7
 79
     5
170
     0
171
     0
290
     0
174
     0
 93
        1
 44
0.0
173
     0
291
     1
 45
0.0
1001
ACAD
1000
AcDbSavedByObjectVersion
1070
     0
  0
VISUALSTYLE
  5
33
102
{ACAD_REACTORS
330
2A
102
}
102
{ACAD_XDICTIONARY
360
1DC
102
}
330
2A
100
AcDbVisualStyle
  2
Realistic
 70
     8
 71
     2
 72
     3
 73
     0
 90
        2
 40
0.6
 41
30.0
 62
     5
 63
     7
421
 16777215
 74
     0
 91
        0
 64
     7
 65
   257
 75
     1
175
     1
 42
1.0
 92
        8
 66
   257
 43
1.0
 76
     1
 77
     6
 78
     2
 67
     7
 79
     3
170
     0
171
     0
290
     0
174
     0
 93
       13
 44
0.0
173
     0
291
     0
 45
0.0
1001
ACAD
1000
AcDbSavedByObjectVersion
1070
     0
  0
VISUALSTYLE
  5
42
102
{ACAD_REACTORS
330
2A
102
}
102
{ACAD_XDICTIONARY
360
1FA
102
}
330
2A
100
AcDbVisualStyle
  2
Shaded
 70
    27
 71
     2
 72
     2
 73
     1
 90
        2
 40
0.6
 41
30.0
 62
     5
 63
     7
421
 16777215
 74
     0
 91
        4
 64
     7
 65
   257
 75
     1
175
     1
 42
1.0
 92
        8
 66
   257
 43
1.0
 76
     1
 77
     6
 78
     2
 67
     8
425
  7895160
 79
     3
170
     0
171
     0
290
     0
174
     0
 93
        5
 44
0.0
173
     0
291
     0
 45
0.0
1001
ACAD
1000
AcDbSavedByObjectVersion
1070
     0
  0
VISUALSTYLE
  5
41
102
{ACAD_REACTORS
330
2A
102
}
102
{ACAD_XDICTIONARY
360
1F8
102
}
330
2A
100
AcDbVisualStyle
  2
Shaded with edges
 70
    26
 71
     2
 72
     2
 73
     1
 90
        2
 40
0.6
 41
30.0
 62
     5
 63
     7
421
 16777215
 74
     1
 91
       10
 64
     7
 65
   257
 75
     2
175
     1
 42
1.0
 92
        8
 66
   257
 43
1.0
 76
     1
 77
     6
 78
     2
 67
     7
 79
     3
170
     0
171
     0
290
     0
174
     0
 93
        5
 44
0.0
173
     0
291
     0
 45
0.0
1001
ACAD
1000
AcDbSavedByObjectVersion
1070
     0
  0
VISUALSTYLE
  5
3E
102
{ACAD_REACTORS
330
2A
102
}
102
{ACAD_XDICTIONARY
360
1F2
102
}
330
2A
100
AcDbVisualStyle
  2
Shades of Gray
 70
    23
 71
     2
 72
     2
 73
     3
 90
        0
 40
0.6
 41
30.0
 62
     5
 63
     7
421
 16777215
 74
     2
 91
        2
 64
     7
 65
     7
 75
     1
175
     1
 42
40.0
 92
        8
 66
     7
 43
1.0
 76
     1
 77
     6
 78
     2
 67
     7
 79
     3
170
     0
171
     0
290
     0
174
     0
 93
        1
 44
0.0
173
     0
291
     0
 45
0.0
1001
ACAD
1000
AcDbSavedByObjectVersion
1070
     0
  0
VISUALSTYLE
  5
3F
102
{ACAD_REACTORS
330
2A
102
}
102
{ACAD_XDICTIONARY
360
1F4
102
}
330
2A
100
AcDbVisualStyle
  2
Sketchy
 70
    24
 71
     1
 72
     2
 73
     2
 90
        0
 40
0.6
 41
30.0
 62
     5
 63
     7
421
 16777215
 74
     2
 91
        2
 64
     7
 65
     7
 75
     1
175
     1
 42
40.0
 92
       11
 66
     7
 43
1.0
 76
     1
 77
     6
 78
     2
 67
     7
 79
     6
170
     0
171
     0
290
     0
174
     0
 93
        1
 44
0.0
173
     0
291
     0
 45
0.0
1001
ACAD
1000
AcDbSavedByObjectVersion
1070
     0
  0
VISUALSTYLE
  5
37
102
{ACAD_REACTORS
330
2A
102
}
102
{ACAD_XDICTIONARY
360
1E4
102
}
330
2A
100
AcDbVisualStyle
  2
Thicken
 70
    13
 71
     2
 72
     2
 73
     0
 90
        0
 40
0.6
 41
30.0
 62
     5
 63
     7
421
 16777215
 74
     1
 91
        4
 64
     7
 65
   257
 75
     1
175
     1
 42
1.0
 92
       12
 66
     7
 43
1.0
 76
     1
 77
     6
 78
     2
 67
     7
 79
     5
170
     0
171
     0
290
     0
174
     0
 93
        1
 44
0.0
173
     0
291
     1
 45
0.0
1001
ACAD
1000
AcDbSavedByObjectVersion
1070
     0
  0
VISUALSTYLE
  5
30
102
{ACAD_REACTORS
330
2A
102
}
102
{ACAD_XDICTIONARY
360
1D6
102
}
330
2A
100
AcDbVisualStyle
  2
Wireframe
 70
     5
 71
     0
 72
     2
 73
     0
 90
        0
 40
0.6
 41
30.0
 62
     5
 63
     7
421
 16777215
 74
     1
 91
        4
 64
     7
 65
   257
 75
     1
175
     1
 42
1.0
 92
        0
 66
   257
 43
1.0
 76
     1
 77
     6
 78
     2
 67
     7
 79
     3
170
     0
171
     0
290
     0
174
     0
 93
        1
 44
0.0
173
     0
291
     0
 45
0.0
1001
ACAD
1000
AcDbSavedByObjectVersion
1070
     0
  0
VISUALSTYLE
  5
40
102
{ACAD_REACTORS
330
2A
102
}
102
{ACAD_XDICTIONARY
360
1F6
102
}
330
2A
100
AcDbVisualStyle
  2
X-Ray
 70
    25
 71
     2
 72
     2
 73
     1
 90
        1
 40
0.5
 41
30.0
 62
     5
 63
     7
421
 16777215
 74
     1
 91
        0
 64
     7
 65
   257
 75
     1
175
     1
 42
1.0
 92
        8
 66
     7
 43
1.0
 76
     1
 77
     6
 78
     2
 67
     7
 79
     3
170
     0
171
     0
290
     0
174
     0
 93
       13
 44
0.0
173
     0
291
     0
 45
0.0
1001
ACAD
1000
AcDbSavedByObjectVersion
1070
     0
  0
DICTIONARYVAR
  5
1C9
102
{ACAD_REACTORS
330
1C8
102
}
330
1C8
100
DictionaryVariables
280
     0
  1
1:1
  0
DICTIONARYVAR
  5
20A
102
{ACAD_REACTORS
330
1C8
102
}
330
1C8
100
DictionaryVariables
280
     0
  1
Standard
  0
DICTIONARYVAR
  5
209
102
{ACAD_REACTORS
330
1C8
102
}
330
1C8
100
DictionaryVariables
280
     0
  1
Standard
  0
DICTIONARYVAR
  5
1CA
102
{ACAD_REACTORS
330
1C8
102
}
330
1C8
100
DictionaryVariables
280
     0
  1
1
  0
DICTIONARYVAR
  5
1CB
102
{ACAD_REACTORS
330
1C8
102
}
330
1C8
100
DictionaryVariables
280
     0
  1
2
  0
DICTIONARY
  5
1FE
330
45
100
AcDbDictionary
280
     1
281
     1
  3
ACAD_XREC_ROUNDTRIP
360
1FF
  0
DICTIONARY
  5
1FC
330
44
100
AcDbDictionary
280
     1
281
     1
  3
ACAD_XREC_ROUNDTRIP
360
1FD
  0
DICTIONARY
  5
200
330
46
100
AcDbDictionary
280
     1
281
     1
  3
ACAD_XREC_ROUNDTRIP
360
201
  0
DICTIONARY
  5
206
330
6C
100
AcDbDictionary
280
     1
281
     1
  3
ACAD_XREC_ROUNDTRIP
360
207
  0
DICTIONARY
  5
202
330
6A
100
AcDbDictionary
280
     1
281
     1
  3
ACAD_ROUNDTRIP_2008_TABLESTYLE_CELLSTYLEMAP
360
204
  3
ACAD_XREC_ROUNDTRIP
360
203
  0
DICTIONARY
  5
1D4
330
2F
100
AcDbDictionary
280
     1
281
     1
  3
ACAD_XREC_ROUNDTRIP
360
1D5
  0
DICTIONARY
  5
1DA
330
32
100
AcDbDictionary
280
     1
281
     1
  3
ACAD_XREC_ROUNDTRIP
360
1DB
  0
DICTIONARY
  5
1E2
330
36
100
AcDbDictionary
280
     1
281
     1
  3
ACAD_XREC_ROUNDTRIP
360
1E3
  0
DICTIONARY
  5
1EA
330
3A
100
AcDbDictionary
280
     1
281
     1
  3
ACAD_XREC_ROUNDTRIP
360
1EB
  0
DICTIONARY
  5
1DE
330
34
100
AcDbDictionary
280
     1
281
     1
  3
ACAD_XREC_ROUNDTRIP
360
1DF
  0
DICTIONARY
  5
1E0
330
35
100
AcDbDictionary
280
     1
281
     1
  3
ACAD_XREC_ROUNDTRIP
360
1E1
  0
DICTIONARY
  5
1F0
330
3D
100
AcDbDictionary
280
     1
281
     1
  3
ACAD_XREC_ROUNDTRIP
360
1F1
  0
DICTIONARY
  5
1E8
330
39
100
AcDbDictionary
280
     1
281
     1
  3
ACAD_XREC_ROUNDTRIP
360
1E9
  0
DICTIONARY
  5
1CC
330
2B
100
AcDbDictionary
280
     1
281
     1
  3
ACAD_XREC_ROUNDTRIP
360
1CD
  0
DICTIONARY
  5
1CE
330
2C
100
AcDbDictionary
280
     1
281
     1
  3
ACAD_XREC_ROUNDTRIP
360
1CF
  0
DICTIONARY
  5
1D0
330
2D
100
AcDbDictionary
280
     1
281
     1
  3
ACAD_XREC_ROUNDTRIP
360
1D1
  0
DICTIONARY
  5
1D2
330
2E
100
AcDbDictionary
280
     1
281
     1
  3
ACAD_XREC_ROUNDTRIP
360
1D3
  0
DICTIONARY
  5
1D8
330
31
100
AcDbDictionary
280
     1
281
     1
  3
ACAD_XREC_ROUNDTRIP
360
1D9
  0
DICTIONARY
  5
1EC
330
3B
100
AcDbDictionary
280
     1
281
     1
  3
ACAD_XREC_ROUNDTRIP
360
1ED
  0
DICTIONARY
  5
1E6
330
38
100
AcDbDictionary
280
     1
281
     1
  3
ACAD_XREC_ROUNDTRIP
360
1E7
  0
DICTIONARY
  5
1EE
330
3C
100
AcDbDictionary
280
     1
281
     1
  3
ACAD_XREC_ROUNDTRIP
360
1EF
  0
DICTIONARY
  5
1DC
330
33
100
AcDbDictionary
280
     1
281
     1
  3
ACAD_XREC_ROUNDTRIP
360
1DD
  0
DICTIONARY
  5
1FA
330
42
100
AcDbDictionary
280
     1
281
     1
  3
ACAD_XREC_ROUNDTRIP
360
1FB
  0
DICTIONARY
  5
1F8
330
41
100
AcDbDictionary
280
     1
281
     1
  3
ACAD_XREC_ROUNDTRIP
360
1F9
  0
DICTIONARY
  5
1F2
330
3E
100
AcDbDictionary
280
     1
281
     1
  3
ACAD_XREC_ROUNDTRIP
360
1F3
  0
DICTIONARY
  5
1F4
330
3F
100
AcDbDictionary
280
     1
281
     1
  3
ACAD_XREC_ROUNDTRIP
360
1F5
  0
DICTIONARY
  5
1E4
330
37
100
AcDbDictionary
280
     1
281
     1
  3
ACAD_XREC_ROUNDTRIP
360
1E5
  0
DICTIONARY
  5
1D6
330
30
100
AcDbDictionary
280
     1
281
     1
  3
ACAD_XREC_ROUNDTRIP
360
1D7
  0
DICTIONARY
  5
1F6
330
40
100
AcDbDictionary
280
     1
281
     1
  3
ACAD_XREC_ROUNDTRIP
360
1F7
  0
XRECORD
  5
1FF
102
{ACAD_REACTORS
330
1FE
102
}
330
1FE
100
AcDbXrecord
280
     1
102
MATERIAL
148
0.0
149
0.0
149
0.0
 93
        0
 94
      127
282
     0
 72
     1
 77
     1
171
     1
175
     1
179
     1
273
     0
  0
XRECORD
  5
1FD
102
{ACAD_REACTORS
330
1FC
102
}
330
1FC
100
AcDbXrecord
280
     1
102
MATERIAL
148
0.0
149
0.0
149
0.0
 93
        0
 94
      127
282
     0
 72
     1
 77
     1
171
     1
175
     1
179
     1
273
     0
  0
XRECORD
  5
201
102
{ACAD_REACTORS
330
200
102
}
330
200
100
AcDbXrecord
280
     1
102
MATERIAL
148
0.0
149
0.0
149
0.0
 93
        0
 94
      127
282
     0
 72
     1
 77
     1
171
     1
175
     1
179
     1
273
     0
  0
XRECORD
  5
207
102
{ACAD_REACTORS
330
206
102
}
330
206
100
AcDbXrecord
280
     1
102
ACAD_ROUNDTRIP_2010_MLEADER_STYLE
  0
CELLSTYLEMAP
  5
204
102
{ACAD_REACTORS
330
202
102
}
330
202
100
AcDbCellStyleMap
 90
        3
300
CELLSTYLE
  1
TABLEFORMAT_BEGIN
 90
        5
170
     1
 91
        0
 92
    32768
 62
   257
 93
        1
300
CONTENTFORMAT
  1
CONTENTFORMAT_BEGIN
 90
        0
 91
        0
 92
        4
 93
        0
300

 40
0.0
140
1.0
 94
        5
 62
     0
340
11
144
0.25
309
CONTENTFORMAT_END
171
     1
301
MARGIN
  1
CELLMARGIN_BEGIN
 40
0.06
 40
0.06
 40
0.06
 40
0.06
 40
0.06
 40
0.06
309
CELLMARGIN_END
 94
        6
 95
        1
302
GRIDFORMAT
  1
GRIDFORMAT_BEGIN
 90
        0
 91
        1
 62
     0
 92
       -2
340
14
 93
        0
 40
0.045
309
GRIDFORMAT_END
 95
        2
302
GRIDFORMAT
  1
GRIDFORMAT_BEGIN
 90
        0
 91
        1
 62
     0
 92
       -2
340
14
 93
        0
 40
0.045
309
GRIDFORMAT_END
 95
        4
302
GRIDFORMAT
  1
GRIDFORMAT_BEGIN
 90
        0
 91
        1
 62
     0
 92
       -2
340
14
 93
        0
 40
0.045
309
GRIDFORMAT_END
 95
        8
302
GRIDFORMAT
  1
GRIDFORMAT_BEGIN
 90
        0
 91
        1
 62
     0
 92
       -2
340
14
 93
        0
 40
0.045
309
GRIDFORMAT_END
 95
       16
302
GRIDFORMAT
  1
GRIDFORMAT_BEGIN
 90
        0
 91
        1
 62
     0
 92
       -2
340
14
 93
        0
 40
0.045
309
GRIDFORMAT_END
 95
       32
302
GRIDFORMAT
  1
GRIDFORMAT_BEGIN
 90
        0
 91
        1
 62
     0
 92
       -2
340
14
 93
        0
 40
0.045
309
GRIDFORMAT_END
309
TABLEFORMAT_END
  1
CELLSTYLE_BEGIN
 90
        1
 91
        1
300
_TITLE
309
CELLSTYLE_END
300
CELLSTYLE
  1
TABLEFORMAT_BEGIN
 90
        5
170
     1
 91
        0
 92
        0
 62
   257
 93
        1
300
CONTENTFORMAT
  1
CONTENTFORMAT_BEGIN
 90
        0
 91
        0
 92
        4
 93
        0
300

 40
0.0
140
1.0
 94
        5
 62
     0
340
11
144
0.18
309
CONTENTFORMAT_END
171
     1
301
MARGIN
  1
CELLMARGIN_BEGIN
 40
0.06
 40
0.06
 40
0.06
 40
0.06
 40
0.06
 40
0.06
309
CELLMARGIN_END
 94
        6
 95
        1
302
GRIDFORMAT
  1
GRIDFORMAT_BEGIN
 90
        0
 91
        1
 62
     0
 92
       -2
340
14
 93
        0
 40
0.045
309
GRIDFORMAT_END
 95
        2
302
GRIDFORMAT
  1
GRIDFORMAT_BEGIN
 90
        0
 91
        1
 62
     0
 92
       -2
340
14
 93
        0
 40
0.045
309
GRIDFORMAT_END
 95
        4
302
GRIDFORMAT
  1
GRIDFORMAT_BEGIN
 90
        0
 91
        1
 62
     0
 92
       -2
340
14
 93
        0
 40
0.045
309
GRIDFORMAT_END
 95
        8
302
GRIDFORMAT
  1
GRIDFORMAT_BEGIN
 90
        0
 91
        1
 62
     0
 92
       -2
340
14
 93
        0
 40
0.045
309
GRIDFORMAT_END
 95
       16
302
GRIDFORMAT
  1
GRIDFORMAT_BEGIN
 90
        0
 91
        1
 62
     0
 92
       -2
340
14
 93
        0
 40
0.045
309
GRIDFORMAT_END
 95
       32
302
GRIDFORMAT
  1
GRIDFORMAT_BEGIN
 90
        0
 91
        1
 62
     0
 92
       -2
340
14
 93
        0
 40
0.045
309
GRIDFORMAT_END
309
TABLEFORMAT_END
  1
CELLSTYLE_BEGIN
 90
        2
 91
        1
300
_HEADER
309
CELLSTYLE_END
300
CELLSTYLE
  1
TABLEFORMAT_BEGIN
 90
        5
170
     1
 91
        0
 92
        0
 62
   257
 93
        1
300
CONTENTFORMAT
  1
CONTENTFORMAT_BEGIN
 90
        0
 91
        0
 92
        4
 93
        0
300

 40
0.0
140
1.0
 94
        2
 62
     0
340
11
144
0.18
309
CONTENTFORMAT_END
171
     1
301
MARGIN
  1
CELLMARGIN_BEGIN
 40
0.06
 40
0.06
 40
0.06
 40
0.06
 40
0.06
 40
0.06
309
CELLMARGIN_END
 94
        6
 95
        1
302
GRIDFORMAT
  1
GRIDFORMAT_BEGIN
 90
        0
 91
        1
 62
     0
 92
       -2
340
14
 93
        0
 40
0.045
309
GRIDFORMAT_END
 95
        2
302
GRIDFORMAT
  1
GRIDFORMAT_BEGIN
 90
        0
 91
        1
 62
     0
 92
       -2
340
14
 93
        0
 40
0.045
309
GRIDFORMAT_END
 95
        4
302
GRIDFORMAT
  1
GRIDFORMAT_BEGIN
 90
        0
 91
        1
 62
     0
 92
       -2
340
14
 93
        0
 40
0.045
309
GRIDFORMAT_END
 95
        8
302
GRIDFORMAT
  1
GRIDFORMAT_BEGIN
 90
        0
 91
        1
 62
     0
 92
       -2
340
14
 93
        0
 40
0.045
309
GRIDFORMAT_END
 95
       16
302
GRIDFORMAT
  1
GRIDFORMAT_BEGIN
 90
        0
 91
        1
 62
     0
 92
       -2
340
14
 93
        0
 40
0.045
309
GRIDFORMAT_END
 95
       32
302
GRIDFORMAT
  1
GRIDFORMAT_BEGIN
 90
        0
 91
        1
 62
     0
 92
       -2
340
14
 93
        0
 40
0.045
309
GRIDFORMAT_END
309
TABLEFORMAT_END
  1
CELLSTYLE_BEGIN
 90
        3
 91
        2
300
_DATA
309
CELLSTYLE_END
  0
XRECORD
  5
203
102
{ACAD_REACTORS
330
202
102
}
330
202
100
AcDbXrecord
280
     1
102
ACAD_ROUNDTRIP_PRE2007_TABLESTYLE
 90
        4
 91
        0
  1

 92
        4
 93
        0
  2

 94
        4
 95
        0
  3

  0
XRECORD
  5
1D5
102
{ACAD_REACTORS
330
1D4
102
}
330
1D4
100
AcDbXrecord
280
     1
102
RTVSPropertyOp0
 70
     1
102
RTVSPropertyOp1
 70
     1
102
RTVSPropertyOp2
 70
     1
102
RTVSPropertyOp3
 70
     1
102
RTVSPropertyOp4
 70
     1
102
RTVSPropertyOp5
 70
     1
102
RTVSPropertyOp6
 70
     1
102
RTVSPropertyOp7
 70
     1
102
RTVSPropertyOp8
 70
     1
102
RTVSPropertyOp9
 70
     1
102
RTVSPropertyOp10
 70
     1
102
RTVSPropertyOp11
 70
     1
102
RTVSPropertyOp12
 70
     1
102
RTVSPropertyOp13
 70
     1
102
RTVSPropertyOp14
 70
     1
102
RTVSPropertyOp15
 70
     1
102
RTVSPropertyOp16
 70
     1
102
RTVSPropertyOp17
 70
     1
102
RTVSPropertyOp18
 70
     1
102
RTVSPropertyOp19
 70
     1
102
RTVSPropertyOp20
 70
     1
102
RTVSPropertyOp21
 70
     1
102
RTVSPropertyOp22
 70
     1
102
RTVSPropertyOp23
 70
     1
102
RTVSPropertyOp24
 70
     1
102
RTVSPropertyOp25
 70
     1
102
RTVSPropertyOp26
 70
     1
102
RTVSPropertyOp27
 70
     1
102
RTVSPropertyOp28
 70
     1
102
RTVSPropertyOp29
 70
     1
102
RTVSPropertyOp30
 70
     1
102
RTVSPropertyOp31
 70
     1
102
RTVSPropertyOp32
 70
     1
102
RTVSPropertyOp33
 70
     1
102
RTVSPropertyOp34
 70
     1
102
RTVSPropertyOp35
 70
     1
102
RTVSPropertyOp36
 70
     1
102
RTVSPropertyOp37
 70
     1
102
RTVSPropertyOp38
 70
     1
102
RTVSPropertyOp39
 70
     1
102
RTVSPropertyOp40
 70
     1
102
RTVSPropertyOp41
 70
     1
102
RTVSPropertyOp42
 70
     1
102
RTVSPropertyOp43
 70
     1
102
RTVSPropertyOp44
 70
     1
102
RTVSPropertyOp45
 70
     1
102
RTVSPropertyOp46
 70
     1
102
RTVSPropertyOp47
 70
     1
102
RTVSPropertyOp48
 70
     1
102
RTVSPropertyOp49
 70
     1
102
RTVSPropertyOp50
 70
     1
102
RTVSPropertyOp51
 70
     0
102
RTVSPropertyOp52
 70
     0
102
RTVSPropertyOp53
 70
     1
102
RTVSPropertyOp54
 70
     1
102
RTVSPropertyOp55
 70
     1
102
RTVSPropertyOp56
 70
     1
102
RTVSPropertyOp57
 70
     1
102
RTVSPost2010Prop28
280
     1
102
RTVSPost2010PropOp28
 70
     1
102
RTVSPost2010Prop29
280
     1
102
RTVSPost2010PropOp29
 70
     1
102
RTVSPost2010Prop30
280
     0
102
RTVSPost2010PropOp30
 70
     1
102
RTVSPost2010Prop31
280
     0
102
RTVSPost2010PropOp31
 70
     1
102
RTVSPost2010Prop32
280
     0
102
RTVSPost2010PropOp32
 70
     1
102
RTVSPost2010Prop33
280
     0
102
RTVSPost2010PropOp33
 70
     1
102
RTVSPost2010Prop34
280
     0
102
RTVSPost2010PropOp34
 70
     1
102
RTVSPost2010Prop35
280
     0
102
RTVSPost2010PropOp35
 70
     1
102
RTVSPost2010Prop36
280
     0
102
RTVSPost2010PropOp36
 70
     1
102
RTVSPost2010Prop37
 90
       50
102
RTVSPost2010PropOp37
 70
     1
102
RTVSPost2010Prop38
140
0.0
102
RTVSPost2010PropOp38
 70
     1
102
RTVSPost2010Prop39
140
1.0
102
RTVSPost2010PropOp39
 70
     1
102
RTVSPost2010Prop40
 90
        0
102
RTVSPost2010PropOp40
 70
     1
102
RTVSPost2010Prop41ColorIndex
 90
       18
102
RTVSPost2010Prop41ColorRGB
 90
        0
102
RTVSPost2010PropOp41
 70
     1
102
RTVSPost2010Prop42
 90
       50
102
RTVSPost2010PropOp42
 70
     1
102
RTVSPost2010Prop43
 90
        3
102
RTVSPost2010PropOp43
 70
     1
102
RTVSPost2010Prop44ColorIndex
 90
        5
102
RTVSPost2010Prop44ColorRGB
 90
      255
102
RTVSPost2010PropOp44
 70
     1
102
RTVSPost2010Prop45
280
     0
102
RTVSPost2010PropOp45
 70
     1
102
RTVSPost2010Prop46
 90
       50
102
RTVSPost2010PropOp46
 70
     1
102
RTVSPost2010Prop47
 90
       50
102
RTVSPost2010PropOp47
 70
     1
102
RTVSPost2010Prop48
 90
       50
102
RTVSPost2010PropOp48
 70
     1
102
RTVSPost2010Prop49
280
     0
102
RTVSPost2010PropOp49
 70
     1
102
RTVSPost2010Prop50
 90
       50
102
RTVSPost2010PropOp50
 70
     1
102
RTVSPost2010Prop51ColorIndex
 90
      256
102
RTVSPost2010Prop51ColorRGB
 90
-16777216
102
RTVSPost2010PropOp51
 70
     0
102
RTVSPost2010Prop52
140
1.0
102
RTVSPost2010PropOp52
 70
     0
102
RTVSPost2010Prop53
 90
        2
102
RTVSPost2010PropOp53
 70
     1
102
RTVSPost2010Prop54
  1
strokes_ogs.tif
102
RTVSPost2010PropOp54
 70
     1
102
RTVSPost2010Prop55
280
     0
102
RTVSPost2010PropOp55
 70
     1
102
RTVSPost2010Prop56
140
1.0
102
RTVSPost2010PropOp56
 70
     1
102
RTVSPost2010Prop57
140
1.0
102
RTVSPost2010PropOp57
 70
     1
  0
XRECORD
  5
1DB
102
{ACAD_REACTORS
330
1DA
102
}
330
1DA
100
AcDbXrecord
280
     1
102
RTVSPropertyOp0
 70
     1
102
RTVSPropertyOp1
 70
     1
102
RTVSPropertyOp2
 70
     1
102
RTVSPropertyOp3
 70
     1
102
RTVSPropertyOp4
 70
     1
102
RTVSPropertyOp5
 70
     1
102
RTVSPropertyOp6
 70
     1
102
RTVSPropertyOp7
 70
     1
102
RTVSPropertyOp8
 70
     1
102
RTVSPropertyOp9
 70
     1
102
RTVSPropertyOp10
 70
     1
102
RTVSPropertyOp11
 70
     1
102
RTVSPropertyOp12
 70
     1
102
RTVSPropertyOp13
 70
     1
102
RTVSPropertyOp14
 70
     1
102
RTVSPropertyOp15
 70
     1
102
RTVSPropertyOp16
 70
     1
102
RTVSPropertyOp17
 70
     1
102
RTVSPropertyOp18
 70
     1
102
RTVSPropertyOp19
 70
     1
102
RTVSPropertyOp20
 70
     1
102
RTVSPropertyOp21
 70
     1
102
RTVSPropertyOp22
 70
     1
102
RTVSPropertyOp23
 70
     1
102
RTVSPropertyOp24
 70
     1
102
RTVSPropertyOp25
 70
     1
102
RTVSPropertyOp26
 70
     1
102
RTVSPropertyOp27
 70
     1
102
RTVSPropertyOp28
 70
     1
102
RTVSPropertyOp29
 70
     1
102
RTVSPropertyOp30
 70
     1
102
RTVSPropertyOp31
 70
     1
102
RTVSPropertyOp32
 70
     1
102
RTVSPropertyOp33
 70
     1
102
RTVSPropertyOp34
 70
     1
102
RTVSPropertyOp35
 70
     1
102
RTVSPropertyOp36
 70
     1
102
RTVSPropertyOp37
 70
     1
102
RTVSPropertyOp38
 70
     1
102
RTVSPropertyOp39
 70
     1
102
RTVSPropertyOp40
 70
     1
102
RTVSPropertyOp41
 70
     1
102
RTVSPropertyOp42
 70
     1
102
RTVSPropertyOp43
 70
     1
102
RTVSPropertyOp44
 70
     1
102
RTVSPropertyOp45
 70
     1
102
RTVSPropertyOp46
 70
     1
102
RTVSPropertyOp47
 70
     1
102
RTVSPropertyOp48
 70
     1
102
RTVSPropertyOp49
 70
     1
102
RTVSPropertyOp50
 70
     1
102
RTVSPropertyOp51
 70
     0
102
RTVSPropertyOp52
 70
     0
102
RTVSPropertyOp53
 70
     1
102
RTVSPropertyOp54
 70
     1
102
RTVSPropertyOp55
 70
     1
102
RTVSPropertyOp56
 70
     1
102
RTVSPropertyOp57
 70
     1
102
RTVSPost2010Prop28
280
     0
102
RTVSPost2010PropOp28
 70
     1
102
RTVSPost2010Prop29
280
     1
102
RTVSPost2010PropOp29
 70
     1
102
RTVSPost2010Prop30
280
     1
102
RTVSPost2010PropOp30
 70
     1
102
RTVSPost2010Prop31
280
     0
102
RTVSPost2010PropOp31
 70
     1
102
RTVSPost2010Prop32
280
     0
102
RTVSPost2010PropOp32
 70
     1
102
RTVSPost2010Prop33
280
     0
102
RTVSPost2010PropOp33
 70
     1
102
RTVSPost2010Prop34
280
     0
102
RTVSPost2010PropOp34
 70
     1
102
RTVSPost2010Prop35
280
     0
102
RTVSPost2010PropOp35
 70
     1
102
RTVSPost2010Prop36
280
     0
102
RTVSPost2010PropOp36
 70
     1
102
RTVSPost2010Prop37
 90
       50
102
RTVSPost2010PropOp37
 70
     1
102
RTVSPost2010Prop38
140
0.0
102
RTVSPost2010PropOp38
 70
     1
102
RTVSPost2010Prop39
140
1.0
102
RTVSPost2010PropOp39
 70
     1
102
RTVSPost2010Prop40
 90
        0
102
RTVSPost2010PropOp40
 70
     1
102
RTVSPost2010Prop41ColorIndex
 90
       18
102
RTVSPost2010Prop41ColorRGB
 90
        0
102
RTVSPost2010PropOp41
 70
     1
102
RTVSPost2010Prop42
 90
       50
102
RTVSPost2010PropOp42
 70
     1
102
RTVSPost2010Prop43
 90
        3
102
RTVSPost2010PropOp43
 70
     1
102
RTVSPost2010Prop44ColorIndex
 90
        5
102
RTVSPost2010Prop44ColorRGB
 90
      255
102
RTVSPost2010PropOp44
 70
     1
102
RTVSPost2010Prop45
280
     0
102
RTVSPost2010PropOp45
 70
     1
102
RTVSPost2010Prop46
 90
       50
102
RTVSPost2010PropOp46
 70
     1
102
RTVSPost2010Prop47
 90
       50
102
RTVSPost2010PropOp47
 70
     1
102
RTVSPost2010Prop48
 90
       50
102
RTVSPost2010PropOp48
 70
     1
102
RTVSPost2010Prop49
280
     0
102
RTVSPost2010PropOp49
 70
     1
102
RTVSPost2010Prop50
 90
       50
102
RTVSPost2010PropOp50
 70
     1
102
RTVSPost2010Prop51ColorIndex
 90
      256
102
RTVSPost2010Prop51ColorRGB
 90
-16777216
102
RTVSPost2010PropOp51
 70
     0
102
RTVSPost2010Prop52
140
1.0
102
RTVSPost2010PropOp52
 70
     0
102
RTVSPost2010Prop53
 90
        2
102
RTVSPost2010PropOp53
 70
     1
102
RTVSPost2010Prop54
  1
strokes_ogs.tif
102
RTVSPost2010PropOp54
 70
     1
102
RTVSPost2010Prop55
280
     0
102
RTVSPost2010PropOp55
 70
     1
102
RTVSPost2010Prop56
140
1.0
102
RTVSPost2010PropOp56
 70
     1
102
RTVSPost2010Prop57
140
1.0
102
RTVSPost2010PropOp57
 70
     1
  0
XRECORD
  5
1E3
102
{ACAD_REACTORS
330
1E2
102
}
330
1E2
100
AcDbXrecord
280
     1
102
RTVSPropertyOp0
 70
     1
102
RTVSPropertyOp1
 70
     1
102
RTVSPropertyOp2
 70
     1
102
RTVSPropertyOp3
 70
     1
102
RTVSPropertyOp4
 70
     1
102
RTVSPropertyOp5
 70
     1
102
RTVSPropertyOp6
 70
     1
102
RTVSPropertyOp7
 70
     1
102
RTVSPropertyOp8
 70
     1
102
RTVSPropertyOp9
 70
     1
102
RTVSPropertyOp10
 70
     1
102
RTVSPropertyOp11
 70
     1
102
RTVSPropertyOp12
 70
     1
102
RTVSPropertyOp13
 70
     1
102
RTVSPropertyOp14
 70
     1
102
RTVSPropertyOp15
 70
     1
102
RTVSPropertyOp16
 70
     1
102
RTVSPropertyOp17
 70
     1
102
RTVSPropertyOp18
 70
     1
102
RTVSPropertyOp19
 70
     1
102
RTVSPropertyOp20
 70
     1
102
RTVSPropertyOp21
 70
     1
102
RTVSPropertyOp22
 70
     1
102
RTVSPropertyOp23
 70
     1
102
RTVSPropertyOp24
 70
     1
102
RTVSPropertyOp25
 70
     1
102
RTVSPropertyOp26
 70
     1
102
RTVSPropertyOp27
 70
     1
102
RTVSPropertyOp28
 70
     1
102
RTVSPropertyOp29
 70
     1
102
RTVSPropertyOp30
 70
     1
102
RTVSPropertyOp31
 70
     1
102
RTVSPropertyOp32
 70
     1
102
RTVSPropertyOp33
 70
     1
102
RTVSPropertyOp34
 70
     1
102
RTVSPropertyOp35
 70
     1
102
RTVSPropertyOp36
 70
     1
102
RTVSPropertyOp37
 70
     1
102
RTVSPropertyOp38
 70
     1
102
RTVSPropertyOp39
 70
     1
102
RTVSPropertyOp40
 70
     1
102
RTVSPropertyOp41
 70
     1
102
RTVSPropertyOp42
 70
     1
102
RTVSPropertyOp43
 70
     1
102
RTVSPropertyOp44
 70
     1
102
RTVSPropertyOp45
 70
     1
102
RTVSPropertyOp46
 70
     1
102
RTVSPropertyOp47
 70
     1
102
RTVSPropertyOp48
 70
     1
102
RTVSPropertyOp49
 70
     1
102
RTVSPropertyOp50
 70
     1
102
RTVSPropertyOp51
 70
     0
102
RTVSPropertyOp52
 70
     0
102
RTVSPropertyOp53
 70
     1
102
RTVSPropertyOp54
 70
     1
102
RTVSPropertyOp55
 70
     1
102
RTVSPropertyOp56
 70
     1
102
RTVSPropertyOp57
 70
     1
102
RTVSPost2010Prop28
280
     0
102
RTVSPost2010PropOp28
 70
     1
102
RTVSPost2010Prop29
280
     1
102
RTVSPost2010PropOp29
 70
     1
102
RTVSPost2010Prop30
280
     1
102
RTVSPost2010PropOp30
 70
     1
102
RTVSPost2010Prop31
280
     0
102
RTVSPost2010PropOp31
 70
     1
102
RTVSPost2010Prop32
280
     0
102
RTVSPost2010PropOp32
 70
     1
102
RTVSPost2010Prop33
280
     0
102
RTVSPost2010PropOp33
 70
     1
102
RTVSPost2010Prop34
280
     0
102
RTVSPost2010PropOp34
 70
     1
102
RTVSPost2010Prop35
280
     0
102
RTVSPost2010PropOp35
 70
     1
102
RTVSPost2010Prop36
280
     0
102
RTVSPost2010PropOp36
 70
     1
102
RTVSPost2010Prop37
 90
       50
102
RTVSPost2010PropOp37
 70
     1
102
RTVSPost2010Prop38
140
0.0
102
RTVSPost2010PropOp38
 70
     1
102
RTVSPost2010Prop39
140
1.0
102
RTVSPost2010PropOp39
 70
     1
102
RTVSPost2010Prop40
 90
        0
102
RTVSPost2010PropOp40
 70
     1
102
RTVSPost2010Prop41ColorIndex
 90
       18
102
RTVSPost2010Prop41ColorRGB
 90
        0
102
RTVSPost2010PropOp41
 70
     1
102
RTVSPost2010Prop42
 90
       50
102
RTVSPost2010PropOp42
 70
     1
102
RTVSPost2010Prop43
 90
        3
102
RTVSPost2010PropOp43
 70
     1
102
RTVSPost2010Prop44ColorIndex
 90
        5
102
RTVSPost2010Prop44ColorRGB
 90
      255
102
RTVSPost2010PropOp44
 70
     1
102
RTVSPost2010Prop45
280
     0
102
RTVSPost2010PropOp45
 70
     1
102
RTVSPost2010Prop46
 90
       50
102
RTVSPost2010PropOp46
 70
     1
102
RTVSPost2010Prop47
 90
       50
102
RTVSPost2010PropOp47
 70
     1
102
RTVSPost2010Prop48
 90
       50
102
RTVSPost2010PropOp48
 70
     1
102
RTVSPost2010Prop49
280
     0
102
RTVSPost2010PropOp49
 70
     1
102
RTVSPost2010Prop50
 90
       50
102
RTVSPost2010PropOp50
 70
     1
102
RTVSPost2010Prop51ColorIndex
 90
      256
102
RTVSPost2010Prop51ColorRGB
 90
-16777216
102
RTVSPost2010PropOp51
 70
     0
102
RTVSPost2010Prop52
140
1.0
102
RTVSPost2010PropOp52
 70
     0
102
RTVSPost2010Prop53
 90
        2
102
RTVSPost2010PropOp53
 70
     1
102
RTVSPost2010Prop54
  1
strokes_ogs.tif
102
RTVSPost2010PropOp54
 70
     1
102
RTVSPost2010Prop55
280
     0
102
RTVSPost2010PropOp55
 70
     1
102
RTVSPost2010Prop56
140
1.0
102
RTVSPost2010PropOp56
 70
     1
102
RTVSPost2010Prop57
140
1.0
102
RTVSPost2010PropOp57
 70
     1
  0
XRECORD
  5
1EB
102
{ACAD_REACTORS
330
1EA
102
}
330
1EA
100
AcDbXrecord
280
     1
102
RTVSPropertyOp0
 70
     1
102
RTVSPropertyOp1
 70
     1
102
RTVSPropertyOp2
 70
     1
102
RTVSPropertyOp3
 70
     1
102
RTVSPropertyOp4
 70
     1
102
RTVSPropertyOp5
 70
     1
102
RTVSPropertyOp6
 70
     1
102
RTVSPropertyOp7
 70
     1
102
RTVSPropertyOp8
 70
     1
102
RTVSPropertyOp9
 70
     1
102
RTVSPropertyOp10
 70
     1
102
RTVSPropertyOp11
 70
     1
102
RTVSPropertyOp12
 70
     1
102
RTVSPropertyOp13
 70
     1
102
RTVSPropertyOp14
 70
     1
102
RTVSPropertyOp15
 70
     1
102
RTVSPropertyOp16
 70
     1
102
RTVSPropertyOp17
 70
     1
102
RTVSPropertyOp18
 70
     1
102
RTVSPropertyOp19
 70
     1
102
RTVSPropertyOp20
 70
     1
102
RTVSPropertyOp21
 70
     1
102
RTVSPropertyOp22
 70
     1
102
RTVSPropertyOp23
 70
     1
102
RTVSPropertyOp24
 70
     1
102
RTVSPropertyOp25
 70
     1
102
RTVSPropertyOp26
 70
     1
102
RTVSPropertyOp27
 70
     1
102
RTVSPropertyOp28
 70
     1
102
RTVSPropertyOp29
 70
     1
102
RTVSPropertyOp30
 70
     1
102
RTVSPropertyOp31
 70
     1
102
RTVSPropertyOp32
 70
     1
102
RTVSPropertyOp33
 70
     1
102
RTVSPropertyOp34
 70
     1
102
RTVSPropertyOp35
 70
     1
102
RTVSPropertyOp36
 70
     1
102
RTVSPropertyOp37
 70
     1
102
RTVSPropertyOp38
 70
     1
102
RTVSPropertyOp39
 70
     1
102
RTVSPropertyOp40
 70
     1
102
RTVSPropertyOp41
 70
     1
102
RTVSPropertyOp42
 70
     1
102
RTVSPropertyOp43
 70
     1
102
RTVSPropertyOp44
 70
     1
102
RTVSPropertyOp45
 70
     1
102
RTVSPropertyOp46
 70
     1
102
RTVSPropertyOp47
 70
     1
102
RTVSPropertyOp48
 70
     1
102
RTVSPropertyOp49
 70
     1
102
RTVSPropertyOp50
 70
     1
102
RTVSPropertyOp51
 70
     0
102
RTVSPropertyOp52
 70
     0
102
RTVSPropertyOp53
 70
     1
102
RTVSPropertyOp54
 70
     1
102
RTVSPropertyOp55
 70
     1
102
RTVSPropertyOp56
 70
     1
102
RTVSPropertyOp57
 70
     1
102
RTVSPost2010Prop28
280
     0
102
RTVSPost2010PropOp28
 70
     1
102
RTVSPost2010Prop29
280
     1
102
RTVSPost2010PropOp29
 70
     1
102
RTVSPost2010Prop30
280
     1
102
RTVSPost2010PropOp30
 70
     1
102
RTVSPost2010Prop31
280
     0
102
RTVSPost2010PropOp31
 70
     1
102
RTVSPost2010Prop32
280
     0
102
RTVSPost2010PropOp32
 70
     1
102
RTVSPost2010Prop33
280
     0
102
RTVSPost2010PropOp33
 70
     1
102
RTVSPost2010Prop34
280
     0
102
RTVSPost2010PropOp34
 70
     1
102
RTVSPost2010Prop35
280
     0
102
RTVSPost2010PropOp35
 70
     1
102
RTVSPost2010Prop36
280
     0
102
RTVSPost2010PropOp36
 70
     1
102
RTVSPost2010Prop37
 90
       50
102
RTVSPost2010PropOp37
 70
     1
102
RTVSPost2010Prop38
140
0.0
102
RTVSPost2010PropOp38
 70
     1
102
RTVSPost2010Prop39
140
1.0
102
RTVSPost2010PropOp39
 70
     1
102
RTVSPost2010Prop40
 90
        0
102
RTVSPost2010PropOp40
 70
     1
102
RTVSPost2010Prop41ColorIndex
 90
       18
102
RTVSPost2010Prop41ColorRGB
 90
        0
102
RTVSPost2010PropOp41
 70
     1
102
RTVSPost2010Prop42
 90
       50
102
RTVSPost2010PropOp42
 70
     1
102
RTVSPost2010Prop43
 90
        3
102
RTVSPost2010PropOp43
 70
     1
102
RTVSPost2010Prop44ColorIndex
 90
        5
102
RTVSPost2010Prop44ColorRGB
 90
      255
102
RTVSPost2010PropOp44
 70
     1
102
RTVSPost2010Prop45
280
     0
102
RTVSPost2010PropOp45
 70
     1
102
RTVSPost2010Prop46
 90
       50
102
RTVSPost2010PropOp46
 70
     1
102
RTVSPost2010Prop47
 90
       50
102
RTVSPost2010PropOp47
 70
     1
102
RTVSPost2010Prop48
 90
       50
102
RTVSPost2010PropOp48
 70
     1
102
RTVSPost2010Prop49
280
     0
102
RTVSPost2010PropOp49
 70
     1
102
RTVSPost2010Prop50
 90
       50
102
RTVSPost2010PropOp50
 70
     1
102
RTVSPost2010Prop51ColorIndex
 90
      256
102
RTVSPost2010Prop51ColorRGB
 90
-16777216
102
RTVSPost2010PropOp51
 70
     0
102
RTVSPost2010Prop52
140
1.0
102
RTVSPost2010PropOp52
 70
     0
102
RTVSPost2010Prop53
 90
        2
102
RTVSPost2010PropOp53
 70
     1
102
RTVSPost2010Prop54
  1
strokes_ogs.tif
102
RTVSPost2010PropOp54
 70
     1
102
RTVSPost2010Prop55
280
     0
102
RTVSPost2010PropOp55
 70
     1
102
RTVSPost2010Prop56
140
1.0
102
RTVSPost2010PropOp56
 70
     1
102
RTVSPost2010Prop57
140
1.0
102
RTVSPost2010PropOp57
 70
     1
  0
XRECORD
  5
1DF
102
{ACAD_REACTORS
330
1DE
102
}
330
1DE
100
AcDbXrecord
280
     1
102
RTVSPropertyOp0
 70
     1
102
RTVSPropertyOp1
 70
     1
102
RTVSPropertyOp2
 70
     1
102
RTVSPropertyOp3
 70
     1
102
RTVSPropertyOp4
 70
     1
102
RTVSPropertyOp5
 70
     1
102
RTVSPropertyOp6
 70
     1
102
RTVSPropertyOp7
 70
     1
102
RTVSPropertyOp8
 70
     1
102
RTVSPropertyOp9
 70
     1
102
RTVSPropertyOp10
 70
     1
102
RTVSPropertyOp11
 70
     1
102
RTVSPropertyOp12
 70
     1
102
RTVSPropertyOp13
 70
     1
102
RTVSPropertyOp14
 70
     1
102
RTVSPropertyOp15
 70
     1
102
RTVSPropertyOp16
 70
     1
102
RTVSPropertyOp17
 70
     1
102
RTVSPropertyOp18
 70
     1
102
RTVSPropertyOp19
 70
     1
102
RTVSPropertyOp20
 70
     1
102
RTVSPropertyOp21
 70
     1
102
RTVSPropertyOp22
 70
     1
102
RTVSPropertyOp23
 70
     1
102
RTVSPropertyOp24
 70
     1
102
RTVSPropertyOp25
 70
     1
102
RTVSPropertyOp26
 70
     1
102
RTVSPropertyOp27
 70
     1
102
RTVSPropertyOp28
 70
     1
102
RTVSPropertyOp29
 70
     1
102
RTVSPropertyOp30
 70
     1
102
RTVSPropertyOp31
 70
     1
102
RTVSPropertyOp32
 70
     1
102
RTVSPropertyOp33
 70
     1
102
RTVSPropertyOp34
 70
     1
102
RTVSPropertyOp35
 70
     1
102
RTVSPropertyOp36
 70
     1
102
RTVSPropertyOp37
 70
     1
102
RTVSPropertyOp38
 70
     1
102
RTVSPropertyOp39
 70
     1
102
RTVSPropertyOp40
 70
     1
102
RTVSPropertyOp41
 70
     1
102
RTVSPropertyOp42
 70
     1
102
RTVSPropertyOp43
 70
     1
102
RTVSPropertyOp44
 70
     1
102
RTVSPropertyOp45
 70
     1
102
RTVSPropertyOp46
 70
     1
102
RTVSPropertyOp47
 70
     1
102
RTVSPropertyOp48
 70
     1
102
RTVSPropertyOp49
 70
     1
102
RTVSPropertyOp50
 70
     1
102
RTVSPropertyOp51
 70
     0
102
RTVSPropertyOp52
 70
     0
102
RTVSPropertyOp53
 70
     1
102
RTVSPropertyOp54
 70
     1
102
RTVSPropertyOp55
 70
     1
102
RTVSPropertyOp56
 70
     1
102
RTVSPropertyOp57
 70
     1
102
RTVSPost2010Prop28
280
     0
102
RTVSPost2010PropOp28
 70
     1
102
RTVSPost2010Prop29
280
     1
102
RTVSPost2010PropOp29
 70
     1
102
RTVSPost2010Prop30
280
     1
102
RTVSPost2010PropOp30
 70
     1
102
RTVSPost2010Prop31
280
     0
102
RTVSPost2010PropOp31
 70
     1
102
RTVSPost2010Prop32
280
     0
102
RTVSPost2010PropOp32
 70
     1
102
RTVSPost2010Prop33
280
     0
102
RTVSPost2010PropOp33
 70
     1
102
RTVSPost2010Prop34
280
     0
102
RTVSPost2010PropOp34
 70
     1
102
RTVSPost2010Prop35
280
     0
102
RTVSPost2010PropOp35
 70
     1
102
RTVSPost2010Prop36
280
     0
102
RTVSPost2010PropOp36
 70
     1
102
RTVSPost2010Prop37
 90
       50
102
RTVSPost2010PropOp37
 70
     1
102
RTVSPost2010Prop38
140
0.0
102
RTVSPost2010PropOp38
 70
     1
102
RTVSPost2010Prop39
140
1.0
102
RTVSPost2010PropOp39
 70
     1
102
RTVSPost2010Prop40
 90
        0
102
RTVSPost2010PropOp40
 70
     1
102
RTVSPost2010Prop41ColorIndex
 90
       18
102
RTVSPost2010Prop41ColorRGB
 90
        0
102
RTVSPost2010PropOp41
 70
     1
102
RTVSPost2010Prop42
 90
       50
102
RTVSPost2010PropOp42
 70
     1
102
RTVSPost2010Prop43
 90
        3
102
RTVSPost2010PropOp43
 70
     1
102
RTVSPost2010Prop44ColorIndex
 90
        5
102
RTVSPost2010Prop44ColorRGB
 90
      255
102
RTVSPost2010PropOp44
 70
     1
102
RTVSPost2010Prop45
280
     0
102
RTVSPost2010PropOp45
 70
     1
102
RTVSPost2010Prop46
 90
       50
102
RTVSPost2010PropOp46
 70
     1
102
RTVSPost2010Prop47
 90
       50
102
RTVSPost2010PropOp47
 70
     1
102
RTVSPost2010Prop48
 90
       50
102
RTVSPost2010PropOp48
 70
     1
102
RTVSPost2010Prop49
280
     0
102
RTVSPost2010PropOp49
 70
     1
102
RTVSPost2010Prop50
 90
       50
102
RTVSPost2010PropOp50
 70
     1
102
RTVSPost2010Prop51ColorIndex
 90
      256
102
RTVSPost2010Prop51ColorRGB
 90
-16777216
102
RTVSPost2010PropOp51
 70
     0
102
RTVSPost2010Prop52
140
1.0
102
RTVSPost2010PropOp52
 70
     0
102
RTVSPost2010Prop53
 90
        2
102
RTVSPost2010PropOp53
 70
     1
102
RTVSPost2010Prop54
  1
strokes_ogs.tif
102
RTVSPost2010PropOp54
 70
     1
102
RTVSPost2010Prop55
280
     0
102
RTVSPost2010PropOp55
 70
     1
102
RTVSPost2010Prop56
140
1.0
102
RTVSPost2010PropOp56
 70
     1
102
RTVSPost2010Prop57
140
1.0
102
RTVSPost2010PropOp57
 70
     1
  0
XRECORD
  5
1E1
102
{ACAD_REACTORS
330
1E0
102
}
330
1E0
100
AcDbXrecord
280
     1
102
RTVSPropertyOp0
 70
     1
102
RTVSPropertyOp1
 70
     1
102
RTVSPropertyOp2
 70
     1
102
RTVSPropertyOp3
 70
     1
102
RTVSPropertyOp4
 70
     1
102
RTVSPropertyOp5
 70
     1
102
RTVSPropertyOp6
 70
     1
102
RTVSPropertyOp7
 70
     1
102
RTVSPropertyOp8
 70
     1
102
RTVSPropertyOp9
 70
     1
102
RTVSPropertyOp10
 70
     1
102
RTVSPropertyOp11
 70
     1
102
RTVSPropertyOp12
 70
     1
102
RTVSPropertyOp13
 70
     1
102
RTVSPropertyOp14
 70
     1
102
RTVSPropertyOp15
 70
     1
102
RTVSPropertyOp16
 70
     1
102
RTVSPropertyOp17
 70
     1
102
RTVSPropertyOp18
 70
     1
102
RTVSPropertyOp19
 70
     1
102
RTVSPropertyOp20
 70
     1
102
RTVSPropertyOp21
 70
     1
102
RTVSPropertyOp22
 70
     1
102
RTVSPropertyOp23
 70
     1
102
RTVSPropertyOp24
 70
     1
102
RTVSPropertyOp25
 70
     1
102
RTVSPropertyOp26
 70
     1
102
RTVSPropertyOp27
 70
     1
102
RTVSPropertyOp28
 70
     1
102
RTVSPropertyOp29
 70
     1
102
RTVSPropertyOp30
 70
     1
102
RTVSPropertyOp31
 70
     1
102
RTVSPropertyOp32
 70
     1
102
RTVSPropertyOp33
 70
     1
102
RTVSPropertyOp34
 70
     1
102
RTVSPropertyOp35
 70
     1
102
RTVSPropertyOp36
 70
     1
102
RTVSPropertyOp37
 70
     1
102
RTVSPropertyOp38
 70
     1
102
RTVSPropertyOp39
 70
     1
102
RTVSPropertyOp40
 70
     1
102
RTVSPropertyOp41
 70
     1
102
RTVSPropertyOp42
 70
     1
102
RTVSPropertyOp43
 70
     1
102
RTVSPropertyOp44
 70
     1
102
RTVSPropertyOp45
 70
     1
102
RTVSPropertyOp46
 70
     1
102
RTVSPropertyOp47
 70
     1
102
RTVSPropertyOp48
 70
     1
102
RTVSPropertyOp49
 70
     1
102
RTVSPropertyOp50
 70
     1
102
RTVSPropertyOp51
 70
     0
102
RTVSPropertyOp52
 70
     0
102
RTVSPropertyOp53
 70
     1
102
RTVSPropertyOp54
 70
     1
102
RTVSPropertyOp55
 70
     1
102
RTVSPropertyOp56
 70
     1
102
RTVSPropertyOp57
 70
     1
102
RTVSPost2010Prop28
280
     0
102
RTVSPost2010PropOp28
 70
     1
102
RTVSPost2010Prop29
280
     1
102
RTVSPost2010PropOp29
 70
     1
102
RTVSPost2010Prop30
280
     1
102
RTVSPost2010PropOp30
 70
     1
102
RTVSPost2010Prop31
280
     0
102
RTVSPost2010PropOp31
 70
     1
102
RTVSPost2010Prop32
280
     0
102
RTVSPost2010PropOp32
 70
     1
102
RTVSPost2010Prop33
280
     0
102
RTVSPost2010PropOp33
 70
     1
102
RTVSPost2010Prop34
280
     0
102
RTVSPost2010PropOp34
 70
     1
102
RTVSPost2010Prop35
280
     0
102
RTVSPost2010PropOp35
 70
     1
102
RTVSPost2010Prop36
280
     0
102
RTVSPost2010PropOp36
 70
     1
102
RTVSPost2010Prop37
 90
       50
102
RTVSPost2010PropOp37
 70
     1
102
RTVSPost2010Prop38
140
0.0
102
RTVSPost2010PropOp38
 70
     1
102
RTVSPost2010Prop39
140
1.0
102
RTVSPost2010PropOp39
 70
     1
102
RTVSPost2010Prop40
 90
        0
102
RTVSPost2010PropOp40
 70
     1
102
RTVSPost2010Prop41ColorIndex
 90
       18
102
RTVSPost2010Prop41ColorRGB
 90
        0
102
RTVSPost2010PropOp41
 70
     1
102
RTVSPost2010Prop42
 90
       50
102
RTVSPost2010PropOp42
 70
     1
102
RTVSPost2010Prop43
 90
        3
102
RTVSPost2010PropOp43
 70
     1
102
RTVSPost2010Prop44ColorIndex
 90
        5
102
RTVSPost2010Prop44ColorRGB
 90
      255
102
RTVSPost2010PropOp44
 70
     1
102
RTVSPost2010Prop45
280
     0
102
RTVSPost2010PropOp45
 70
     1
102
RTVSPost2010Prop46
 90
       50
102
RTVSPost2010PropOp46
 70
     1
102
RTVSPost2010Prop47
 90
       50
102
RTVSPost2010PropOp47
 70
     1
102
RTVSPost2010Prop48
 90
       50
102
RTVSPost2010PropOp48
 70
     1
102
RTVSPost2010Prop49
280
     0
102
RTVSPost2010PropOp49
 70
     1
102
RTVSPost2010Prop50
 90
       50
102
RTVSPost2010PropOp50
 70
     1
102
RTVSPost2010Prop51ColorIndex
 90
      256
102
RTVSPost2010Prop51ColorRGB
 90
-16777216
102
RTVSPost2010PropOp51
 70
     0
102
RTVSPost2010Prop52
140
1.0
102
RTVSPost2010PropOp52
 70
     0
102
RTVSPost2010Prop53
 90
        2
102
RTVSPost2010PropOp53
 70
     1
102
RTVSPost2010Prop54
  1
strokes_ogs.tif
102
RTVSPost2010PropOp54
 70
     1
102
RTVSPost2010Prop55
280
     0
102
RTVSPost2010PropOp55
 70
     1
102
RTVSPost2010Prop56
140
1.0
102
RTVSPost2010PropOp56
 70
     1
102
RTVSPost2010Prop57
140
1.0
102
RTVSPost2010PropOp57
 70
     1
  0
XRECORD
  5
1F1
102
{ACAD_REACTORS
330
1F0
102
}
330
1F0
100
AcDbXrecord
280
     1
102
RTVSPropertyOp0
 70
     0
102
RTVSPropertyOp1
 70
     0
102
RTVSPropertyOp2
 70
     0
102
RTVSPropertyOp3
 70
     0
102
RTVSPropertyOp4
 70
     0
102
RTVSPropertyOp5
 70
     0
102
RTVSPropertyOp6
 70
     0
102
RTVSPropertyOp7
 70
     0
102
RTVSPropertyOp8
 70
     0
102
RTVSPropertyOp9
 70
     0
102
RTVSPropertyOp10
 70
     0
102
RTVSPropertyOp11
 70
     0
102
RTVSPropertyOp12
 70
     0
102
RTVSPropertyOp13
 70
     0
102
RTVSPropertyOp14
 70
     2
102
RTVSPropertyOp15
 70
     0
102
RTVSPropertyOp16
 70
     0
102
RTVSPropertyOp17
 70
     0
102
RTVSPropertyOp18
 70
     0
102
RTVSPropertyOp19
 70
     0
102
RTVSPropertyOp20
 70
     0
102
RTVSPropertyOp21
 70
     0
102
RTVSPropertyOp22
 70
     0
102
RTVSPropertyOp23
 70
     0
102
RTVSPropertyOp24
 70
     0
102
RTVSPropertyOp25
 70
     0
102
RTVSPropertyOp26
 70
     0
102
RTVSPropertyOp27
 70
     0
102
RTVSPropertyOp28
 70
     0
102
RTVSPropertyOp29
 70
     0
102
RTVSPropertyOp30
 70
     0
102
RTVSPropertyOp31
 70
     0
102
RTVSPropertyOp32
 70
     0
102
RTVSPropertyOp33
 70
     0
102
RTVSPropertyOp34
 70
     0
102
RTVSPropertyOp35
 70
     0
102
RTVSPropertyOp36
 70
     0
102
RTVSPropertyOp37
 70
     0
102
RTVSPropertyOp38
 70
     0
102
RTVSPropertyOp39
 70
     0
102
RTVSPropertyOp40
 70
     0
102
RTVSPropertyOp41
 70
     0
102
RTVSPropertyOp42
 70
     0
102
RTVSPropertyOp43
 70
     0
102
RTVSPropertyOp44
 70
     0
102
RTVSPropertyOp45
 70
     0
102
RTVSPropertyOp46
 70
     0
102
RTVSPropertyOp47
 70
     0
102
RTVSPropertyOp48
 70
     0
102
RTVSPropertyOp49
 70
     0
102
RTVSPropertyOp50
 70
     0
102
RTVSPropertyOp51
 70
     0
102
RTVSPropertyOp52
 70
     0
102
RTVSPropertyOp53
 70
     0
102
RTVSPropertyOp54
 70
     0
102
RTVSPropertyOp55
 70
     0
102
RTVSPropertyOp56
 70
     0
102
RTVSPropertyOp57
 70
     0
102
RTVSPost2010Prop28
280
     0
102
RTVSPost2010PropOp28
 70
     0
102
RTVSPost2010Prop29
280
     1
102
RTVSPost2010PropOp29
 70
     0
102
RTVSPost2010Prop30
280
     1
102
RTVSPost2010PropOp30
 70
     0
102
RTVSPost2010Prop31
280
     0
102
RTVSPost2010PropOp31
 70
     0
102
RTVSPost2010Prop32
280
     0
102
RTVSPost2010PropOp32
 70
     0
102
RTVSPost2010Prop33
280
     0
102
RTVSPost2010PropOp33
 70
     0
102
RTVSPost2010Prop34
280
     0
102
RTVSPost2010PropOp34
 70
     0
102
RTVSPost2010Prop35
280
     0
102
RTVSPost2010PropOp35
 70
     0
102
RTVSPost2010Prop36
280
     0
102
RTVSPost2010PropOp36
 70
     0
102
RTVSPost2010Prop37
 90
       50
102
RTVSPost2010PropOp37
 70
     0
102
RTVSPost2010Prop38
140
0.0
102
RTVSPost2010PropOp38
 70
     0
102
RTVSPost2010Prop39
140
1.0
102
RTVSPost2010PropOp39
 70
     0
102
RTVSPost2010Prop40
 90
        0
102
RTVSPost2010PropOp40
 70
     0
102
RTVSPost2010Prop41ColorIndex
 90
       18
102
RTVSPost2010Prop41ColorRGB
 90
        0
102
RTVSPost2010PropOp41
 70
     0
102
RTVSPost2010Prop42
 90
       50
102
RTVSPost2010PropOp42
 70
     0
102
RTVSPost2010Prop43
 90
        3
102
RTVSPost2010PropOp43
 70
     0
102
RTVSPost2010Prop44ColorIndex
 90
        5
102
RTVSPost2010Prop44ColorRGB
 90
      255
102
RTVSPost2010PropOp44
 70
     0
102
RTVSPost2010Prop45
280
     0
102
RTVSPost2010PropOp45
 70
     0
102
RTVSPost2010Prop46
 90
       50
102
RTVSPost2010PropOp46
 70
     0
102
RTVSPost2010Prop47
 90
       50
102
RTVSPost2010PropOp47
 70
     0
102
RTVSPost2010Prop48
 90
       50
102
RTVSPost2010PropOp48
 70
     0
102
RTVSPost2010Prop49
280
     0
102
RTVSPost2010PropOp49
 70
     0
102
RTVSPost2010Prop50
 90
       50
102
RTVSPost2010PropOp50
 70
     0
102
RTVSPost2010Prop51ColorIndex
 90
      256
102
RTVSPost2010Prop51ColorRGB
 90
-16777216
102
RTVSPost2010PropOp51
 70
     0
102
RTVSPost2010Prop52
140
1.0
102
RTVSPost2010PropOp52
 70
     0
102
RTVSPost2010Prop53
 90
        2
102
RTVSPost2010PropOp53
 70
     0
102
RTVSPost2010Prop54
  1
strokes_ogs.tif
102
RTVSPost2010PropOp54
 70
     0
102
RTVSPost2010Prop55
280
     0
102
RTVSPost2010PropOp55
 70
     0
102
RTVSPost2010Prop56
140
1.0
102
RTVSPost2010PropOp56
 70
     0
102
RTVSPost2010Prop57
140
1.0
102
RTVSPost2010PropOp57
 70
     0
  0
XRECORD
  5
1E9
102
{ACAD_REACTORS
330
1E8
102
}
330
1E8
100
AcDbXrecord
280
     1
102
RTVSPropertyOp0
 70
     1
102
RTVSPropertyOp1
 70
     1
102
RTVSPropertyOp2
 70
     1
102
RTVSPropertyOp3
 70
     1
102
RTVSPropertyOp4
 70
     1
102
RTVSPropertyOp5
 70
     1
102
RTVSPropertyOp6
 70
     1
102
RTVSPropertyOp7
 70
     1
102
RTVSPropertyOp8
 70
     1
102
RTVSPropertyOp9
 70
     1
102
RTVSPropertyOp10
 70
     1
102
RTVSPropertyOp11
 70
     1
102
RTVSPropertyOp12
 70
     1
102
RTVSPropertyOp13
 70
     1
102
RTVSPropertyOp14
 70
     1
102
RTVSPropertyOp15
 70
     1
102
RTVSPropertyOp16
 70
     1
102
RTVSPropertyOp17
 70
     1
102
RTVSPropertyOp18
 70
     1
102
RTVSPropertyOp19
 70
     1
102
RTVSPropertyOp20
 70
     1
102
RTVSPropertyOp21
 70
     1
102
RTVSPropertyOp22
 70
     1
102
RTVSPropertyOp23
 70
     1
102
RTVSPropertyOp24
 70
     1
102
RTVSPropertyOp25
 70
     1
102
RTVSPropertyOp26
 70
     1
102
RTVSPropertyOp27
 70
     1
102
RTVSPropertyOp28
 70
     1
102
RTVSPropertyOp29
 70
     1
102
RTVSPropertyOp30
 70
     1
102
RTVSPropertyOp31
 70
     1
102
RTVSPropertyOp32
 70
     1
102
RTVSPropertyOp33
 70
     1
102
RTVSPropertyOp34
 70
     1
102
RTVSPropertyOp35
 70
     1
102
RTVSPropertyOp36
 70
     1
102
RTVSPropertyOp37
 70
     1
102
RTVSPropertyOp38
 70
     1
102
RTVSPropertyOp39
 70
     1
102
RTVSPropertyOp40
 70
     1
102
RTVSPropertyOp41
 70
     1
102
RTVSPropertyOp42
 70
     1
102
RTVSPropertyOp43
 70
     1
102
RTVSPropertyOp44
 70
     1
102
RTVSPropertyOp45
 70
     1
102
RTVSPropertyOp46
 70
     1
102
RTVSPropertyOp47
 70
     1
102
RTVSPropertyOp48
 70
     1
102
RTVSPropertyOp49
 70
     1
102
RTVSPropertyOp50
 70
     1
102
RTVSPropertyOp51
 70
     0
102
RTVSPropertyOp52
 70
     0
102
RTVSPropertyOp53
 70
     1
102
RTVSPropertyOp54
 70
     1
102
RTVSPropertyOp55
 70
     1
102
RTVSPropertyOp56
 70
     1
102
RTVSPropertyOp57
 70
     1
102
RTVSPost2010Prop28
280
     0
102
RTVSPost2010PropOp28
 70
     1
102
RTVSPost2010Prop29
280
     1
102
RTVSPost2010PropOp29
 70
     1
102
RTVSPost2010Prop30
280
     1
102
RTVSPost2010PropOp30
 70
     1
102
RTVSPost2010Prop31
280
     0
102
RTVSPost2010PropOp31
 70
     1
102
RTVSPost2010Prop32
280
     0
102
RTVSPost2010PropOp32
 70
     1
102
RTVSPost2010Prop33
280
     0
102
RTVSPost2010PropOp33
 70
     1
102
RTVSPost2010Prop34
280
     0
102
RTVSPost2010PropOp34
 70
     1
102
RTVSPost2010Prop35
280
     0
102
RTVSPost2010PropOp35
 70
     1
102
RTVSPost2010Prop36
280
     0
102
RTVSPost2010PropOp36
 70
     1
102
RTVSPost2010Prop37
 90
       50
102
RTVSPost2010PropOp37
 70
     1
102
RTVSPost2010Prop38
140
0.0
102
RTVSPost2010PropOp38
 70
     1
102
RTVSPost2010Prop39
140
1.0
102
RTVSPost2010PropOp39
 70
     1
102
RTVSPost2010Prop40
 90
        0
102
RTVSPost2010PropOp40
 70
     1
102
RTVSPost2010Prop41ColorIndex
 90
       18
102
RTVSPost2010Prop41ColorRGB
 90
        0
102
RTVSPost2010PropOp41
 70
     1
102
RTVSPost2010Prop42
 90
       50
102
RTVSPost2010PropOp42
 70
     1
102
RTVSPost2010Prop43
 90
        3
102
RTVSPost2010PropOp43
 70
     1
102
RTVSPost2010Prop44ColorIndex
 90
        5
102
RTVSPost2010Prop44ColorRGB
 90
      255
102
RTVSPost2010PropOp44
 70
     1
102
RTVSPost2010Prop45
280
     0
102
RTVSPost2010PropOp45
 70
     1
102
RTVSPost2010Prop46
 90
       50
102
RTVSPost2010PropOp46
 70
     1
102
RTVSPost2010Prop47
 90
       50
102
RTVSPost2010PropOp47
 70
     1
102
RTVSPost2010Prop48
 90
       50
102
RTVSPost2010PropOp48
 70
     1
102
RTVSPost2010Prop49
280
     0
102
RTVSPost2010PropOp49
 70
     1
102
RTVSPost2010Prop50
 90
       50
102
RTVSPost2010PropOp50
 70
     1
102
RTVSPost2010Prop51ColorIndex
 90
      256
102
RTVSPost2010Prop51ColorRGB
 90
-16777216
102
RTVSPost2010PropOp51
 70
     0
102
RTVSPost2010Prop52
140
1.0
102
RTVSPost2010PropOp52
 70
     0
102
RTVSPost2010Prop53
 90
        2
102
RTVSPost2010PropOp53
 70
     1
102
RTVSPost2010Prop54
  1
strokes_ogs.tif
102
RTVSPost2010PropOp54
 70
     1
102
RTVSPost2010Prop55
280
     0
102
RTVSPost2010PropOp55
 70
     1
102
RTVSPost2010Prop56
140
1.0
102
RTVSPost2010PropOp56
 70
     1
102
RTVSPost2010Prop57
140
1.0
102
RTVSPost2010PropOp57
 70
     1
  0
XRECORD
  5
1CD
102
{ACAD_REACTORS
330
1CC
102
}
330
1CC
100
AcDbXrecord
280
     1
102
RTVSPropertyOp0
 70
     1
102
RTVSPropertyOp1
 70
     1
102
RTVSPropertyOp2
 70
     1
102
RTVSPropertyOp3
 70
     1
102
RTVSPropertyOp4
 70
     1
102
RTVSPropertyOp5
 70
     1
102
RTVSPropertyOp6
 70
     1
102
RTVSPropertyOp7
 70
     1
102
RTVSPropertyOp8
 70
     1
102
RTVSPropertyOp9
 70
     1
102
RTVSPropertyOp10
 70
     1
102
RTVSPropertyOp11
 70
     1
102
RTVSPropertyOp12
 70
     1
102
RTVSPropertyOp13
 70
     1
102
RTVSPropertyOp14
 70
     1
102
RTVSPropertyOp15
 70
     1
102
RTVSPropertyOp16
 70
     1
102
RTVSPropertyOp17
 70
     1
102
RTVSPropertyOp18
 70
     1
102
RTVSPropertyOp19
 70
     1
102
RTVSPropertyOp20
 70
     1
102
RTVSPropertyOp21
 70
     1
102
RTVSPropertyOp22
 70
     1
102
RTVSPropertyOp23
 70
     1
102
RTVSPropertyOp24
 70
     1
102
RTVSPropertyOp25
 70
     1
102
RTVSPropertyOp26
 70
     1
102
RTVSPropertyOp27
 70
     1
102
RTVSPropertyOp28
 70
     1
102
RTVSPropertyOp29
 70
     1
102
RTVSPropertyOp30
 70
     1
102
RTVSPropertyOp31
 70
     1
102
RTVSPropertyOp32
 70
     1
102
RTVSPropertyOp33
 70
     1
102
RTVSPropertyOp34
 70
     1
102
RTVSPropertyOp35
 70
     1
102
RTVSPropertyOp36
 70
     1
102
RTVSPropertyOp37
 70
     1
102
RTVSPropertyOp38
 70
     1
102
RTVSPropertyOp39
 70
     1
102
RTVSPropertyOp40
 70
     1
102
RTVSPropertyOp41
 70
     1
102
RTVSPropertyOp42
 70
     1
102
RTVSPropertyOp43
 70
     1
102
RTVSPropertyOp44
 70
     1
102
RTVSPropertyOp45
 70
     1
102
RTVSPropertyOp46
 70
     1
102
RTVSPropertyOp47
 70
     1
102
RTVSPropertyOp48
 70
     1
102
RTVSPropertyOp49
 70
     1
102
RTVSPropertyOp50
 70
     1
102
RTVSPropertyOp51
 70
     0
102
RTVSPropertyOp52
 70
     0
102
RTVSPropertyOp53
 70
     1
102
RTVSPropertyOp54
 70
     1
102
RTVSPropertyOp55
 70
     1
102
RTVSPropertyOp56
 70
     1
102
RTVSPropertyOp57
 70
     1
102
RTVSPost2010Prop28
280
     0
102
RTVSPost2010PropOp28
 70
     1
102
RTVSPost2010Prop29
280
     1
102
RTVSPost2010PropOp29
 70
     1
102
RTVSPost2010Prop30
280
     1
102
RTVSPost2010PropOp30
 70
     1
102
RTVSPost2010Prop31
280
     0
102
RTVSPost2010PropOp31
 70
     1
102
RTVSPost2010Prop32
280
     0
102
RTVSPost2010PropOp32
 70
     1
102
RTVSPost2010Prop33
280
     0
102
RTVSPost2010PropOp33
 70
     1
102
RTVSPost2010Prop34
280
     0
102
RTVSPost2010PropOp34
 70
     1
102
RTVSPost2010Prop35
280
     0
102
RTVSPost2010PropOp35
 70
     1
102
RTVSPost2010Prop36
280
     0
102
RTVSPost2010PropOp36
 70
     1
102
RTVSPost2010Prop37
 90
       50
102
RTVSPost2010PropOp37
 70
     1
102
RTVSPost2010Prop38
140
0.0
102
RTVSPost2010PropOp38
 70
     1
102
RTVSPost2010Prop39
140
1.0
102
RTVSPost2010PropOp39
 70
     1
102
RTVSPost2010Prop40
 90
        0
102
RTVSPost2010PropOp40
 70
     1
102
RTVSPost2010Prop41ColorIndex
 90
       18
102
RTVSPost2010Prop41ColorRGB
 90
        0
102
RTVSPost2010PropOp41
 70
     1
102
RTVSPost2010Prop42
 90
       50
102
RTVSPost2010PropOp42
 70
     1
102
RTVSPost2010Prop43
 90
        3
102
RTVSPost2010PropOp43
 70
     1
102
RTVSPost2010Prop44ColorIndex
 90
        5
102
RTVSPost2010Prop44ColorRGB
 90
      255
102
RTVSPost2010PropOp44
 70
     1
102
RTVSPost2010Prop45
280
     0
102
RTVSPost2010PropOp45
 70
     1
102
RTVSPost2010Prop46
 90
       50
102
RTVSPost2010PropOp46
 70
     1
102
RTVSPost2010Prop47
 90
       50
102
RTVSPost2010PropOp47
 70
     1
102
RTVSPost2010Prop48
 90
       50
102
RTVSPost2010PropOp48
 70
     1
102
RTVSPost2010Prop49
280
     0
102
RTVSPost2010PropOp49
 70
     1
102
RTVSPost2010Prop50
 90
       50
102
RTVSPost2010PropOp50
 70
     1
102
RTVSPost2010Prop51ColorIndex
 90
      256
102
RTVSPost2010Prop51ColorRGB
 90
-16777216
102
RTVSPost2010PropOp51
 70
     0
102
RTVSPost2010Prop52
140
1.0
102
RTVSPost2010PropOp52
 70
     0
102
RTVSPost2010Prop53
 90
        2
102
RTVSPost2010PropOp53
 70
     1
102
RTVSPost2010Prop54
  1
strokes_ogs.tif
102
RTVSPost2010PropOp54
 70
     1
102
RTVSPost2010Prop55
280
     0
102
RTVSPost2010PropOp55
 70
     1
102
RTVSPost2010Prop56
140
1.0
102
RTVSPost2010PropOp56
 70
     1
102
RTVSPost2010Prop57
140
1.0
102
RTVSPost2010PropOp57
 70
     1
  0
XRECORD
  5
1CF
102
{ACAD_REACTORS
330
1CE
102
}
330
1CE
100
AcDbXrecord
280
     1
102
RTVSPropertyOp0
 70
     1
102
RTVSPropertyOp1
 70
     1
102
RTVSPropertyOp2
 70
     1
102
RTVSPropertyOp3
 70
     1
102
RTVSPropertyOp4
 70
     1
102
RTVSPropertyOp5
 70
     1
102
RTVSPropertyOp6
 70
     1
102
RTVSPropertyOp7
 70
     1
102
RTVSPropertyOp8
 70
     1
102
RTVSPropertyOp9
 70
     1
102
RTVSPropertyOp10
 70
     1
102
RTVSPropertyOp11
 70
     1
102
RTVSPropertyOp12
 70
     1
102
RTVSPropertyOp13
 70
     1
102
RTVSPropertyOp14
 70
     1
102
RTVSPropertyOp15
 70
     1
102
RTVSPropertyOp16
 70
     1
102
RTVSPropertyOp17
 70
     1
102
RTVSPropertyOp18
 70
     1
102
RTVSPropertyOp19
 70
     1
102
RTVSPropertyOp20
 70
     1
102
RTVSPropertyOp21
 70
     1
102
RTVSPropertyOp22
 70
     1
102
RTVSPropertyOp23
 70
     1
102
RTVSPropertyOp24
 70
     1
102
RTVSPropertyOp25
 70
     1
102
RTVSPropertyOp26
 70
     1
102
RTVSPropertyOp27
 70
     1
102
RTVSPropertyOp28
 70
     1
102
RTVSPropertyOp29
 70
     1
102
RTVSPropertyOp30
 70
     1
102
RTVSPropertyOp31
 70
     1
102
RTVSPropertyOp32
 70
     1
102
RTVSPropertyOp33
 70
     1
102
RTVSPropertyOp34
 70
     1
102
RTVSPropertyOp35
 70
     1
102
RTVSPropertyOp36
 70
     1
102
RTVSPropertyOp37
 70
     1
102
RTVSPropertyOp38
 70
     1
102
RTVSPropertyOp39
 70
     1
102
RTVSPropertyOp40
 70
     1
102
RTVSPropertyOp41
 70
     1
102
RTVSPropertyOp42
 70
     1
102
RTVSPropertyOp43
 70
     1
102
RTVSPropertyOp44
 70
     1
102
RTVSPropertyOp45
 70
     1
102
RTVSPropertyOp46
 70
     1
102
RTVSPropertyOp47
 70
     1
102
RTVSPropertyOp48
 70
     1
102
RTVSPropertyOp49
 70
     1
102
RTVSPropertyOp50
 70
     1
102
RTVSPropertyOp51
 70
     0
102
RTVSPropertyOp52
 70
     0
102
RTVSPropertyOp53
 70
     1
102
RTVSPropertyOp54
 70
     1
102
RTVSPropertyOp55
 70
     1
102
RTVSPropertyOp56
 70
     1
102
RTVSPropertyOp57
 70
     1
102
RTVSPost2010Prop28
280
     0
102
RTVSPost2010PropOp28
 70
     1
102
RTVSPost2010Prop29
280
     1
102
RTVSPost2010PropOp29
 70
     1
102
RTVSPost2010Prop30
280
     1
102
RTVSPost2010PropOp30
 70
     1
102
RTVSPost2010Prop31
280
     0
102
RTVSPost2010PropOp31
 70
     1
102
RTVSPost2010Prop32
280
     0
102
RTVSPost2010PropOp32
 70
     1
102
RTVSPost2010Prop33
280
     0
102
RTVSPost2010PropOp33
 70
     1
102
RTVSPost2010Prop34
280
     0
102
RTVSPost2010PropOp34
 70
     1
102
RTVSPost2010Prop35
280
     0
102
RTVSPost2010PropOp35
 70
     1
102
RTVSPost2010Prop36
280
     0
102
RTVSPost2010PropOp36
 70
     1
102
RTVSPost2010Prop37
 90
       50
102
RTVSPost2010PropOp37
 70
     1
102
RTVSPost2010Prop38
140
0.0
102
RTVSPost2010PropOp38
 70
     1
102
RTVSPost2010Prop39
140
1.0
102
RTVSPost2010PropOp39
 70
     1
102
RTVSPost2010Prop40
 90
        0
102
RTVSPost2010PropOp40
 70
     1
102
RTVSPost2010Prop41ColorIndex
 90
       18
102
RTVSPost2010Prop41ColorRGB
 90
        0
102
RTVSPost2010PropOp41
 70
     1
102
RTVSPost2010Prop42
 90
       50
102
RTVSPost2010PropOp42
 70
     1
102
RTVSPost2010Prop43
 90
        3
102
RTVSPost2010PropOp43
 70
     1
102
RTVSPost2010Prop44ColorIndex
 90
        5
102
RTVSPost2010Prop44ColorRGB
 90
      255
102
RTVSPost2010PropOp44
 70
     1
102
RTVSPost2010Prop45
280
     0
102
RTVSPost2010PropOp45
 70
     1
102
RTVSPost2010Prop46
 90
       50
102
RTVSPost2010PropOp46
 70
     1
102
RTVSPost2010Prop47
 90
       50
102
RTVSPost2010PropOp47
 70
     1
102
RTVSPost2010Prop48
 90
       50
102
RTVSPost2010PropOp48
 70
     1
102
RTVSPost2010Prop49
280
     0
102
RTVSPost2010PropOp49
 70
     1
102
RTVSPost2010Prop50
 90
       50
102
RTVSPost2010PropOp50
 70
     1
102
RTVSPost2010Prop51ColorIndex
 90
      256
102
RTVSPost2010Prop51ColorRGB
 90
-16777216
102
RTVSPost2010PropOp51
 70
     0
102
RTVSPost2010Prop52
140
1.0
102
RTVSPost2010PropOp52
 70
     0
102
RTVSPost2010Prop53
 90
        2
102
RTVSPost2010PropOp53
 70
     1
102
RTVSPost2010Prop54
  1
strokes_ogs.tif
102
RTVSPost2010PropOp54
 70
     1
102
RTVSPost2010Prop55
280
     0
102
RTVSPost2010PropOp55
 70
     1
102
RTVSPost2010Prop56
140
1.0
102
RTVSPost2010PropOp56
 70
     1
102
RTVSPost2010Prop57
140
1.0
102
RTVSPost2010PropOp57
 70
     1
  0
XRECORD
  5
1D1
102
{ACAD_REACTORS
330
1D0
102
}
330
1D0
100
AcDbXrecord
280
     1
102
RTVSPropertyOp0
 70
     1
102
RTVSPropertyOp1
 70
     1
102
RTVSPropertyOp2
 70
     1
102
RTVSPropertyOp3
 70
     1
102
RTVSPropertyOp4
 70
     1
102
RTVSPropertyOp5
 70
     1
102
RTVSPropertyOp6
 70
     1
102
RTVSPropertyOp7
 70
     1
102
RTVSPropertyOp8
 70
     1
102
RTVSPropertyOp9
 70
     1
102
RTVSPropertyOp10
 70
     1
102
RTVSPropertyOp11
 70
     1
102
RTVSPropertyOp12
 70
     1
102
RTVSPropertyOp13
 70
     1
102
RTVSPropertyOp14
 70
     1
102
RTVSPropertyOp15
 70
     1
102
RTVSPropertyOp16
 70
     1
102
RTVSPropertyOp17
 70
     1
102
RTVSPropertyOp18
 70
     1
102
RTVSPropertyOp19
 70
     1
102
RTVSPropertyOp20
 70
     1
102
RTVSPropertyOp21
 70
     1
102
RTVSPropertyOp22
 70
     1
102
RTVSPropertyOp23
 70
     1
102
RTVSPropertyOp24
 70
     1
102
RTVSPropertyOp25
 70
     1
102
RTVSPropertyOp26
 70
     1
102
RTVSPropertyOp27
 70
     1
102
RTVSPropertyOp28
 70
     1
102
RTVSPropertyOp29
 70
     1
102
RTVSPropertyOp30
 70
     1
102
RTVSPropertyOp31
 70
     1
102
RTVSPropertyOp32
 70
     1
102
RTVSPropertyOp33
 70
     1
102
RTVSPropertyOp34
 70
     1
102
RTVSPropertyOp35
 70
     1
102
RTVSPropertyOp36
 70
     1
102
RTVSPropertyOp37
 70
     1
102
RTVSPropertyOp38
 70
     1
102
RTVSPropertyOp39
 70
     1
102
RTVSPropertyOp40
 70
     1
102
RTVSPropertyOp41
 70
     1
102
RTVSPropertyOp42
 70
     1
102
RTVSPropertyOp43
 70
     1
102
RTVSPropertyOp44
 70
     1
102
RTVSPropertyOp45
 70
     1
102
RTVSPropertyOp46
 70
     1
102
RTVSPropertyOp47
 70
     1
102
RTVSPropertyOp48
 70
     1
102
RTVSPropertyOp49
 70
     1
102
RTVSPropertyOp50
 70
     1
102
RTVSPropertyOp51
 70
     0
102
RTVSPropertyOp52
 70
     0
102
RTVSPropertyOp53
 70
     1
102
RTVSPropertyOp54
 70
     1
102
RTVSPropertyOp55
 70
     1
102
RTVSPropertyOp56
 70
     1
102
RTVSPropertyOp57
 70
     1
102
RTVSPost2010Prop28
280
     0
102
RTVSPost2010PropOp28
 70
     1
102
RTVSPost2010Prop29
280
     1
102
RTVSPost2010PropOp29
 70
     1
102
RTVSPost2010Prop30
280
     1
102
RTVSPost2010PropOp30
 70
     1
102
RTVSPost2010Prop31
280
     0
102
RTVSPost2010PropOp31
 70
     1
102
RTVSPost2010Prop32
280
     0
102
RTVSPost2010PropOp32
 70
     1
102
RTVSPost2010Prop33
280
     0
102
RTVSPost2010PropOp33
 70
     1
102
RTVSPost2010Prop34
280
     0
102
RTVSPost2010PropOp34
 70
     1
102
RTVSPost2010Prop35
280
     0
102
RTVSPost2010PropOp35
 70
     1
102
RTVSPost2010Prop36
280
     0
102
RTVSPost2010PropOp36
 70
     1
102
RTVSPost2010Prop37
 90
       50
102
RTVSPost2010PropOp37
 70
     1
102
RTVSPost2010Prop38
140
0.0
102
RTVSPost2010PropOp38
 70
     1
102
RTVSPost2010Prop39
140
1.0
102
RTVSPost2010PropOp39
 70
     1
102
RTVSPost2010Prop40
 90
        0
102
RTVSPost2010PropOp40
 70
     1
102
RTVSPost2010Prop41ColorIndex
 90
       18
102
RTVSPost2010Prop41ColorRGB
 90
        0
102
RTVSPost2010PropOp41
 70
     1
102
RTVSPost2010Prop42
 90
       50
102
RTVSPost2010PropOp42
 70
     1
102
RTVSPost2010Prop43
 90
        3
102
RTVSPost2010PropOp43
 70
     1
102
RTVSPost2010Prop44ColorIndex
 90
        5
102
RTVSPost2010Prop44ColorRGB
 90
      255
102
RTVSPost2010PropOp44
 70
     1
102
RTVSPost2010Prop45
280
     0
102
RTVSPost2010PropOp45
 70
     1
102
RTVSPost2010Prop46
 90
       50
102
RTVSPost2010PropOp46
 70
     1
102
RTVSPost2010Prop47
 90
       50
102
RTVSPost2010PropOp47
 70
     1
102
RTVSPost2010Prop48
 90
       50
102
RTVSPost2010PropOp48
 70
     1
102
RTVSPost2010Prop49
280
     0
102
RTVSPost2010PropOp49
 70
     1
102
RTVSPost2010Prop50
 90
       50
102
RTVSPost2010PropOp50
 70
     1
102
RTVSPost2010Prop51ColorIndex
 90
      256
102
RTVSPost2010Prop51ColorRGB
 90
-16777216
102
RTVSPost2010PropOp51
 70
     0
102
RTVSPost2010Prop52
140
1.0
102
RTVSPost2010PropOp52
 70
     0
102
RTVSPost2010Prop53
 90
        2
102
RTVSPost2010PropOp53
 70
     1
102
RTVSPost2010Prop54
  1
strokes_ogs.tif
102
RTVSPost2010PropOp54
 70
     1
102
RTVSPost2010Prop55
280
     0
102
RTVSPost2010PropOp55
 70
     1
102
RTVSPost2010Prop56
140
1.0
102
RTVSPost2010PropOp56
 70
     1
102
RTVSPost2010Prop57
140
1.0
102
RTVSPost2010PropOp57
 70
     1
  0
XRECORD
  5
1D3
102
{ACAD_REACTORS
330
1D2
102
}
330
1D2
100
AcDbXrecord
280
     1
102
RTVSPropertyOp0
 70
     1
102
RTVSPropertyOp1
 70
     1
102
RTVSPropertyOp2
 70
     1
102
RTVSPropertyOp3
 70
     1
102
RTVSPropertyOp4
 70
     1
102
RTVSPropertyOp5
 70
     1
102
RTVSPropertyOp6
 70
     1
102
RTVSPropertyOp7
 70
     1
102
RTVSPropertyOp8
 70
     1
102
RTVSPropertyOp9
 70
     1
102
RTVSPropertyOp10
 70
     1
102
RTVSPropertyOp11
 70
     1
102
RTVSPropertyOp12
 70
     1
102
RTVSPropertyOp13
 70
     1
102
RTVSPropertyOp14
 70
     1
102
RTVSPropertyOp15
 70
     1
102
RTVSPropertyOp16
 70
     1
102
RTVSPropertyOp17
 70
     1
102
RTVSPropertyOp18
 70
     1
102
RTVSPropertyOp19
 70
     1
102
RTVSPropertyOp20
 70
     1
102
RTVSPropertyOp21
 70
     1
102
RTVSPropertyOp22
 70
     1
102
RTVSPropertyOp23
 70
     1
102
RTVSPropertyOp24
 70
     1
102
RTVSPropertyOp25
 70
     1
102
RTVSPropertyOp26
 70
     1
102
RTVSPropertyOp27
 70
     1
102
RTVSPropertyOp28
 70
     1
102
RTVSPropertyOp29
 70
     1
102
RTVSPropertyOp30
 70
     1
102
RTVSPropertyOp31
 70
     1
102
RTVSPropertyOp32
 70
     1
102
RTVSPropertyOp33
 70
     1
102
RTVSPropertyOp34
 70
     1
102
RTVSPropertyOp35
 70
     1
102
RTVSPropertyOp36
 70
     1
102
RTVSPropertyOp37
 70
     1
102
RTVSPropertyOp38
 70
     1
102
RTVSPropertyOp39
 70
     1
102
RTVSPropertyOp40
 70
     1
102
RTVSPropertyOp41
 70
     1
102
RTVSPropertyOp42
 70
     1
102
RTVSPropertyOp43
 70
     1
102
RTVSPropertyOp44
 70
     1
102
RTVSPropertyOp45
 70
     1
102
RTVSPropertyOp46
 70
     1
102
RTVSPropertyOp47
 70
     1
102
RTVSPropertyOp48
 70
     1
102
RTVSPropertyOp49
 70
     1
102
RTVSPropertyOp50
 70
     1
102
RTVSPropertyOp51
 70
     0
102
RTVSPropertyOp52
 70
     0
102
RTVSPropertyOp53
 70
     1
102
RTVSPropertyOp54
 70
     1
102
RTVSPropertyOp55
 70
     1
102
RTVSPropertyOp56
 70
     1
102
RTVSPropertyOp57
 70
     1
102
RTVSPost2010Prop28
280
     0
102
RTVSPost2010PropOp28
 70
     1
102
RTVSPost2010Prop29
280
     1
102
RTVSPost2010PropOp29
 70
     1
102
RTVSPost2010Prop30
280
     1
102
RTVSPost2010PropOp30
 70
     1
102
RTVSPost2010Prop31
280
     0
102
RTVSPost2010PropOp31
 70
     1
102
RTVSPost2010Prop32
280
     0
102
RTVSPost2010PropOp32
 70
     1
102
RTVSPost2010Prop33
280
     0
102
RTVSPost2010PropOp33
 70
     1
102
RTVSPost2010Prop34
280
     0
102
RTVSPost2010PropOp34
 70
     1
102
RTVSPost2010Prop35
280
     0
102
RTVSPost2010PropOp35
 70
     1
102
RTVSPost2010Prop36
280
     0
102
RTVSPost2010PropOp36
 70
     1
102
RTVSPost2010Prop37
 90
       50
102
RTVSPost2010PropOp37
 70
     1
102
RTVSPost2010Prop38
140
0.0
102
RTVSPost2010PropOp38
 70
     1
102
RTVSPost2010Prop39
140
1.0
102
RTVSPost2010PropOp39
 70
     1
102
RTVSPost2010Prop40
 90
        0
102
RTVSPost2010PropOp40
 70
     1
102
RTVSPost2010Prop41ColorIndex
 90
       18
102
RTVSPost2010Prop41ColorRGB
 90
        0
102
RTVSPost2010PropOp41
 70
     1
102
RTVSPost2010Prop42
 90
       50
102
RTVSPost2010PropOp42
 70
     1
102
RTVSPost2010Prop43
 90
        3
102
RTVSPost2010PropOp43
 70
     1
102
RTVSPost2010Prop44ColorIndex
 90
        5
102
RTVSPost2010Prop44ColorRGB
 90
      255
102
RTVSPost2010PropOp44
 70
     1
102
RTVSPost2010Prop45
280
     0
102
RTVSPost2010PropOp45
 70
     1
102
RTVSPost2010Prop46
 90
       50
102
RTVSPost2010PropOp46
 70
     1
102
RTVSPost2010Prop47
 90
       50
102
RTVSPost2010PropOp47
 70
     1
102
RTVSPost2010Prop48
 90
       50
102
RTVSPost2010PropOp48
 70
     1
102
RTVSPost2010Prop49
280
     0
102
RTVSPost2010PropOp49
 70
     1
102
RTVSPost2010Prop50
 90
       50
102
RTVSPost2010PropOp50
 70
     1
102
RTVSPost2010Prop51ColorIndex
 90
      256
102
RTVSPost2010Prop51ColorRGB
 90
-16777216
102
RTVSPost2010PropOp51
 70
     0
102
RTVSPost2010Prop52
140
1.0
102
RTVSPost2010PropOp52
 70
     0
102
RTVSPost2010Prop53
 90
        2
102
RTVSPost2010PropOp53
 70
     1
102
RTVSPost2010Prop54
  1
strokes_ogs.tif
102
RTVSPost2010PropOp54
 70
     1
102
RTVSPost2010Prop55
280
     0
102
RTVSPost2010PropOp55
 70
     1
102
RTVSPost2010Prop56
140
1.0
102
RTVSPost2010PropOp56
 70
     1
102
RTVSPost2010Prop57
140
1.0
102
RTVSPost2010PropOp57
 70
     1
  0
XRECORD
  5
1D9
102
{ACAD_REACTORS
330
1D8
102
}
330
1D8
100
AcDbXrecord
280
     1
102
RTVSPropertyOp0
 70
     1
102
RTVSPropertyOp1
 70
     1
102
RTVSPropertyOp2
 70
     1
102
RTVSPropertyOp3
 70
     1
102
RTVSPropertyOp4
 70
     1
102
RTVSPropertyOp5
 70
     1
102
RTVSPropertyOp6
 70
     1
102
RTVSPropertyOp7
 70
     1
102
RTVSPropertyOp8
 70
     1
102
RTVSPropertyOp9
 70
     1
102
RTVSPropertyOp10
 70
     1
102
RTVSPropertyOp11
 70
     1
102
RTVSPropertyOp12
 70
     1
102
RTVSPropertyOp13
 70
     1
102
RTVSPropertyOp14
 70
     1
102
RTVSPropertyOp15
 70
     1
102
RTVSPropertyOp16
 70
     1
102
RTVSPropertyOp17
 70
     1
102
RTVSPropertyOp18
 70
     1
102
RTVSPropertyOp19
 70
     1
102
RTVSPropertyOp20
 70
     1
102
RTVSPropertyOp21
 70
     1
102
RTVSPropertyOp22
 70
     1
102
RTVSPropertyOp23
 70
     1
102
RTVSPropertyOp24
 70
     1
102
RTVSPropertyOp25
 70
     1
102
RTVSPropertyOp26
 70
     1
102
RTVSPropertyOp27
 70
     1
102
RTVSPropertyOp28
 70
     1
102
RTVSPropertyOp29
 70
     1
102
RTVSPropertyOp30
 70
     1
102
RTVSPropertyOp31
 70
     1
102
RTVSPropertyOp32
 70
     1
102
RTVSPropertyOp33
 70
     1
102
RTVSPropertyOp34
 70
     1
102
RTVSPropertyOp35
 70
     1
102
RTVSPropertyOp36
 70
     1
102
RTVSPropertyOp37
 70
     1
102
RTVSPropertyOp38
 70
     1
102
RTVSPropertyOp39
 70
     1
102
RTVSPropertyOp40
 70
     1
102
RTVSPropertyOp41
 70
     1
102
RTVSPropertyOp42
 70
     1
102
RTVSPropertyOp43
 70
     1
102
RTVSPropertyOp44
 70
     1
102
RTVSPropertyOp45
 70
     1
102
RTVSPropertyOp46
 70
     1
102
RTVSPropertyOp47
 70
     1
102
RTVSPropertyOp48
 70
     1
102
RTVSPropertyOp49
 70
     1
102
RTVSPropertyOp50
 70
     1
102
RTVSPropertyOp51
 70
     0
102
RTVSPropertyOp52
 70
     0
102
RTVSPropertyOp53
 70
     1
102
RTVSPropertyOp54
 70
     1
102
RTVSPropertyOp55
 70
     1
102
RTVSPropertyOp56
 70
     1
102
RTVSPropertyOp57
 70
     1
102
RTVSPost2010Prop28
280
     0
102
RTVSPost2010PropOp28
 70
     1
102
RTVSPost2010Prop29
280
     1
102
RTVSPost2010PropOp29
 70
     1
102
RTVSPost2010Prop30
280
     1
102
RTVSPost2010PropOp30
 70
     1
102
RTVSPost2010Prop31
280
     0
102
RTVSPost2010PropOp31
 70
     1
102
RTVSPost2010Prop32
280
     0
102
RTVSPost2010PropOp32
 70
     1
102
RTVSPost2010Prop33
280
     0
102
RTVSPost2010PropOp33
 70
     1
102
RTVSPost2010Prop34
280
     0
102
RTVSPost2010PropOp34
 70
     1
102
RTVSPost2010Prop35
280
     0
102
RTVSPost2010PropOp35
 70
     1
102
RTVSPost2010Prop36
280
     0
102
RTVSPost2010PropOp36
 70
     1
102
RTVSPost2010Prop37
 90
       50
102
RTVSPost2010PropOp37
 70
     1
102
RTVSPost2010Prop38
140
0.0
102
RTVSPost2010PropOp38
 70
     1
102
RTVSPost2010Prop39
140
1.0
102
RTVSPost2010PropOp39
 70
     1
102
RTVSPost2010Prop40
 90
        0
102
RTVSPost2010PropOp40
 70
     1
102
RTVSPost2010Prop41ColorIndex
 90
       18
102
RTVSPost2010Prop41ColorRGB
 90
        0
102
RTVSPost2010PropOp41
 70
     1
102
RTVSPost2010Prop42
 90
       50
102
RTVSPost2010PropOp42
 70
     1
102
RTVSPost2010Prop43
 90
        3
102
RTVSPost2010PropOp43
 70
     1
102
RTVSPost2010Prop44ColorIndex
 90
        5
102
RTVSPost2010Prop44ColorRGB
 90
      255
102
RTVSPost2010PropOp44
 70
     1
102
RTVSPost2010Prop45
280
     0
102
RTVSPost2010PropOp45
 70
     1
102
RTVSPost2010Prop46
 90
       50
102
RTVSPost2010PropOp46
 70
     1
102
RTVSPost2010Prop47
 90
       50
102
RTVSPost2010PropOp47
 70
     1
102
RTVSPost2010Prop48
 90
       50
102
RTVSPost2010PropOp48
 70
     1
102
RTVSPost2010Prop49
280
     0
102
RTVSPost2010PropOp49
 70
     1
102
RTVSPost2010Prop50
 90
       50
102
RTVSPost2010PropOp50
 70
     1
102
RTVSPost2010Prop51ColorIndex
 90
      256
102
RTVSPost2010Prop51ColorRGB
 90
-16777216
102
RTVSPost2010PropOp51
 70
     0
102
RTVSPost2010Prop52
140
1.0
102
RTVSPost2010PropOp52
 70
     0
102
RTVSPost2010Prop53
 90
        2
102
RTVSPost2010PropOp53
 70
     1
102
RTVSPost2010Prop54
  1
strokes_ogs.tif
102
RTVSPost2010PropOp54
 70
     1
102
RTVSPost2010Prop55
280
     0
102
RTVSPost2010PropOp55
 70
     1
102
RTVSPost2010Prop56
140
1.0
102
RTVSPost2010PropOp56
 70
     1
102
RTVSPost2010Prop57
140
1.0
102
RTVSPost2010PropOp57
 70
     1
  0
XRECORD
  5
1ED
102
{ACAD_REACTORS
330
1EC
102
}
330
1EC
100
AcDbXrecord
280
     1
102
RTVSPropertyOp0
 70
     0
102
RTVSPropertyOp1
 70
     0
102
RTVSPropertyOp2
 70
     0
102
RTVSPropertyOp3
 70
     0
102
RTVSPropertyOp4
 70
     0
102
RTVSPropertyOp5
 70
     0
102
RTVSPropertyOp6
 70
     0
102
RTVSPropertyOp7
 70
     0
102
RTVSPropertyOp8
 70
     0
102
RTVSPropertyOp9
 70
     0
102
RTVSPropertyOp10
 70
     0
102
RTVSPropertyOp11
 70
     0
102
RTVSPropertyOp12
 70
     0
102
RTVSPropertyOp13
 70
     0
102
RTVSPropertyOp14
 70
     2
102
RTVSPropertyOp15
 70
     0
102
RTVSPropertyOp16
 70
     0
102
RTVSPropertyOp17
 70
     0
102
RTVSPropertyOp18
 70
     0
102
RTVSPropertyOp19
 70
     0
102
RTVSPropertyOp20
 70
     0
102
RTVSPropertyOp21
 70
     0
102
RTVSPropertyOp22
 70
     0
102
RTVSPropertyOp23
 70
     0
102
RTVSPropertyOp24
 70
     0
102
RTVSPropertyOp25
 70
     0
102
RTVSPropertyOp26
 70
     0
102
RTVSPropertyOp27
 70
     0
102
RTVSPropertyOp28
 70
     0
102
RTVSPropertyOp29
 70
     0
102
RTVSPropertyOp30
 70
     0
102
RTVSPropertyOp31
 70
     0
102
RTVSPropertyOp32
 70
     0
102
RTVSPropertyOp33
 70
     0
102
RTVSPropertyOp34
 70
     0
102
RTVSPropertyOp35
 70
     0
102
RTVSPropertyOp36
 70
     0
102
RTVSPropertyOp37
 70
     0
102
RTVSPropertyOp38
 70
     0
102
RTVSPropertyOp39
 70
     0
102
RTVSPropertyOp40
 70
     0
102
RTVSPropertyOp41
 70
     0
102
RTVSPropertyOp42
 70
     0
102
RTVSPropertyOp43
 70
     0
102
RTVSPropertyOp44
 70
     0
102
RTVSPropertyOp45
 70
     0
102
RTVSPropertyOp46
 70
     0
102
RTVSPropertyOp47
 70
     0
102
RTVSPropertyOp48
 70
     0
102
RTVSPropertyOp49
 70
     0
102
RTVSPropertyOp50
 70
     0
102
RTVSPropertyOp51
 70
     0
102
RTVSPropertyOp52
 70
     0
102
RTVSPropertyOp53
 70
     0
102
RTVSPropertyOp54
 70
     0
102
RTVSPropertyOp55
 70
     0
102
RTVSPropertyOp56
 70
     0
102
RTVSPropertyOp57
 70
     0
102
RTVSPost2010Prop28
280
     0
102
RTVSPost2010PropOp28
 70
     0
102
RTVSPost2010Prop29
280
     1
102
RTVSPost2010PropOp29
 70
     0
102
RTVSPost2010Prop30
280
     1
102
RTVSPost2010PropOp30
 70
     0
102
RTVSPost2010Prop31
280
     0
102
RTVSPost2010PropOp31
 70
     0
102
RTVSPost2010Prop32
280
     0
102
RTVSPost2010PropOp32
 70
     0
102
RTVSPost2010Prop33
280
     0
102
RTVSPost2010PropOp33
 70
     0
102
RTVSPost2010Prop34
280
     0
102
RTVSPost2010PropOp34
 70
     0
102
RTVSPost2010Prop35
280
     0
102
RTVSPost2010PropOp35
 70
     0
102
RTVSPost2010Prop36
280
     0
102
RTVSPost2010PropOp36
 70
     0
102
RTVSPost2010Prop37
 90
       50
102
RTVSPost2010PropOp37
 70
     0
102
RTVSPost2010Prop38
140
0.0
102
RTVSPost2010PropOp38
 70
     0
102
RTVSPost2010Prop39
140
1.0
102
RTVSPost2010PropOp39
 70
     0
102
RTVSPost2010Prop40
 90
        0
102
RTVSPost2010PropOp40
 70
     0
102
RTVSPost2010Prop41ColorIndex
 90
       18
102
RTVSPost2010Prop41ColorRGB
 90
        0
102
RTVSPost2010PropOp41
 70
     0
102
RTVSPost2010Prop42
 90
       50
102
RTVSPost2010PropOp42
 70
     0
102
RTVSPost2010Prop43
 90
        3
102
RTVSPost2010PropOp43
 70
     0
102
RTVSPost2010Prop44ColorIndex
 90
        5
102
RTVSPost2010Prop44ColorRGB
 90
      255
102
RTVSPost2010PropOp44
 70
     0
102
RTVSPost2010Prop45
280
     0
102
RTVSPost2010PropOp45
 70
     0
102
RTVSPost2010Prop46
 90
       50
102
RTVSPost2010PropOp46
 70
     0
102
RTVSPost2010Prop47
 90
       50
102
RTVSPost2010PropOp47
 70
     0
102
RTVSPost2010Prop48
 90
       50
102
RTVSPost2010PropOp48
 70
     0
102
RTVSPost2010Prop49
280
     0
102
RTVSPost2010PropOp49
 70
     0
102
RTVSPost2010Prop50
 90
       50
102
RTVSPost2010PropOp50
 70
     0
102
RTVSPost2010Prop51ColorIndex
 90
      256
102
RTVSPost2010Prop51ColorRGB
 90
-16777216
102
RTVSPost2010PropOp51
 70
     0
102
RTVSPost2010Prop52
140
1.0
102
RTVSPost2010PropOp52
 70
     0
102
RTVSPost2010Prop53
 90
        2
102
RTVSPost2010PropOp53
 70
     0
102
RTVSPost2010Prop54
  1
strokes_ogs.tif
102
RTVSPost2010PropOp54
 70
     0
102
RTVSPost2010Prop55
280
     0
102
RTVSPost2010PropOp55
 70
     0
102
RTVSPost2010Prop56
140
1.0
102
RTVSPost2010PropOp56
 70
     0
102
RTVSPost2010Prop57
140
1.0
102
RTVSPost2010PropOp57
 70
     0
  0
XRECORD
  5
1E7
102
{ACAD_REACTORS
330
1E6
102
}
330
1E6
100
AcDbXrecord
280
     1
102
RTVSPropertyOp0
 70
     1
102
RTVSPropertyOp1
 70
     1
102
RTVSPropertyOp2
 70
     1
102
RTVSPropertyOp3
 70
     1
102
RTVSPropertyOp4
 70
     1
102
RTVSPropertyOp5
 70
     1
102
RTVSPropertyOp6
 70
     1
102
RTVSPropertyOp7
 70
     1
102
RTVSPropertyOp8
 70
     1
102
RTVSPropertyOp9
 70
     1
102
RTVSPropertyOp10
 70
     1
102
RTVSPropertyOp11
 70
     1
102
RTVSPropertyOp12
 70
     1
102
RTVSPropertyOp13
 70
     1
102
RTVSPropertyOp14
 70
     1
102
RTVSPropertyOp15
 70
     1
102
RTVSPropertyOp16
 70
     1
102
RTVSPropertyOp17
 70
     1
102
RTVSPropertyOp18
 70
     1
102
RTVSPropertyOp19
 70
     1
102
RTVSPropertyOp20
 70
     1
102
RTVSPropertyOp21
 70
     1
102
RTVSPropertyOp22
 70
     1
102
RTVSPropertyOp23
 70
     1
102
RTVSPropertyOp24
 70
     1
102
RTVSPropertyOp25
 70
     1
102
RTVSPropertyOp26
 70
     1
102
RTVSPropertyOp27
 70
     1
102
RTVSPropertyOp28
 70
     1
102
RTVSPropertyOp29
 70
     1
102
RTVSPropertyOp30
 70
     1
102
RTVSPropertyOp31
 70
     1
102
RTVSPropertyOp32
 70
     1
102
RTVSPropertyOp33
 70
     1
102
RTVSPropertyOp34
 70
     1
102
RTVSPropertyOp35
 70
     1
102
RTVSPropertyOp36
 70
     1
102
RTVSPropertyOp37
 70
     1
102
RTVSPropertyOp38
 70
     1
102
RTVSPropertyOp39
 70
     1
102
RTVSPropertyOp40
 70
     1
102
RTVSPropertyOp41
 70
     1
102
RTVSPropertyOp42
 70
     1
102
RTVSPropertyOp43
 70
     1
102
RTVSPropertyOp44
 70
     1
102
RTVSPropertyOp45
 70
     1
102
RTVSPropertyOp46
 70
     1
102
RTVSPropertyOp47
 70
     1
102
RTVSPropertyOp48
 70
     1
102
RTVSPropertyOp49
 70
     1
102
RTVSPropertyOp50
 70
     1
102
RTVSPropertyOp51
 70
     0
102
RTVSPropertyOp52
 70
     0
102
RTVSPropertyOp53
 70
     1
102
RTVSPropertyOp54
 70
     1
102
RTVSPropertyOp55
 70
     1
102
RTVSPropertyOp56
 70
     1
102
RTVSPropertyOp57
 70
     1
102
RTVSPost2010Prop28
280
     0
102
RTVSPost2010PropOp28
 70
     1
102
RTVSPost2010Prop29
280
     1
102
RTVSPost2010PropOp29
 70
     1
102
RTVSPost2010Prop30
280
     1
102
RTVSPost2010PropOp30
 70
     1
102
RTVSPost2010Prop31
280
     0
102
RTVSPost2010PropOp31
 70
     1
102
RTVSPost2010Prop32
280
     0
102
RTVSPost2010PropOp32
 70
     1
102
RTVSPost2010Prop33
280
     0
102
RTVSPost2010PropOp33
 70
     1
102
RTVSPost2010Prop34
280
     0
102
RTVSPost2010PropOp34
 70
     1
102
RTVSPost2010Prop35
280
     0
102
RTVSPost2010PropOp35
 70
     1
102
RTVSPost2010Prop36
280
     0
102
RTVSPost2010PropOp36
 70
     1
102
RTVSPost2010Prop37
 90
       50
102
RTVSPost2010PropOp37
 70
     1
102
RTVSPost2010Prop38
140
0.0
102
RTVSPost2010PropOp38
 70
     1
102
RTVSPost2010Prop39
140
1.0
102
RTVSPost2010PropOp39
 70
     1
102
RTVSPost2010Prop40
 90
        0
102
RTVSPost2010PropOp40
 70
     1
102
RTVSPost2010Prop41ColorIndex
 90
       18
102
RTVSPost2010Prop41ColorRGB
 90
        0
102
RTVSPost2010PropOp41
 70
     1
102
RTVSPost2010Prop42
 90
       50
102
RTVSPost2010PropOp42
 70
     1
102
RTVSPost2010Prop43
 90
        3
102
RTVSPost2010PropOp43
 70
     1
102
RTVSPost2010Prop44ColorIndex
 90
        5
102
RTVSPost2010Prop44ColorRGB
 90
      255
102
RTVSPost2010PropOp44
 70
     1
102
RTVSPost2010Prop45
280
     0
102
RTVSPost2010PropOp45
 70
     1
102
RTVSPost2010Prop46
 90
       50
102
RTVSPost2010PropOp46
 70
     1
102
RTVSPost2010Prop47
 90
       50
102
RTVSPost2010PropOp47
 70
     1
102
RTVSPost2010Prop48
 90
       50
102
RTVSPost2010PropOp48
 70
     1
102
RTVSPost2010Prop49
280
     0
102
RTVSPost2010PropOp49
 70
     1
102
RTVSPost2010Prop50
 90
       50
102
RTVSPost2010PropOp50
 70
     1
102
RTVSPost2010Prop51ColorIndex
 90
      256
102
RTVSPost2010Prop51ColorRGB
 90
-16777216
102
RTVSPost2010PropOp51
 70
     0
102
RTVSPost2010Prop52
140
1.0
102
RTVSPost2010PropOp52
 70
     0
102
RTVSPost2010Prop53
 90
        2
102
RTVSPost2010PropOp53
 70
     1
102
RTVSPost2010Prop54
  1
strokes_ogs.tif
102
RTVSPost2010PropOp54
 70
     1
102
RTVSPost2010Prop55
280
     0
102
RTVSPost2010PropOp55
 70
     1
102
RTVSPost2010Prop56
140
1.0
102
RTVSPost2010PropOp56
 70
     1
102
RTVSPost2010Prop57
140
1.0
102
RTVSPost2010PropOp57
 70
     1
  0
XRECORD
  5
1EF
102
{ACAD_REACTORS
330
1EE
102
}
330
1EE
100
AcDbXrecord
280
     1
102
RTVSPropertyOp0
 70
     0
102
RTVSPropertyOp1
 70
     0
102
RTVSPropertyOp2
 70
     0
102
RTVSPropertyOp3
 70
     0
102
RTVSPropertyOp4
 70
     0
102
RTVSPropertyOp5
 70
     0
102
RTVSPropertyOp6
 70
     0
102
RTVSPropertyOp7
 70
     0
102
RTVSPropertyOp8
 70
     0
102
RTVSPropertyOp9
 70
     0
102
RTVSPropertyOp10
 70
     0
102
RTVSPropertyOp11
 70
     0
102
RTVSPropertyOp12
 70
     0
102
RTVSPropertyOp13
 70
     0
102
RTVSPropertyOp14
 70
     2
102
RTVSPropertyOp15
 70
     0
102
RTVSPropertyOp16
 70
     0
102
RTVSPropertyOp17
 70
     0
102
RTVSPropertyOp18
 70
     0
102
RTVSPropertyOp19
 70
     0
102
RTVSPropertyOp20
 70
     0
102
RTVSPropertyOp21
 70
     0
102
RTVSPropertyOp22
 70
     0
102
RTVSPropertyOp23
 70
     0
102
RTVSPropertyOp24
 70
     0
102
RTVSPropertyOp25
 70
     0
102
RTVSPropertyOp26
 70
     0
102
RTVSPropertyOp27
 70
     0
102
RTVSPropertyOp28
 70
     0
102
RTVSPropertyOp29
 70
     0
102
RTVSPropertyOp30
 70
     0
102
RTVSPropertyOp31
 70
     0
102
RTVSPropertyOp32
 70
     0
102
RTVSPropertyOp33
 70
     0
102
RTVSPropertyOp34
 70
     0
102
RTVSPropertyOp35
 70
     0
102
RTVSPropertyOp36
 70
     0
102
RTVSPropertyOp37
 70
     0
102
RTVSPropertyOp38
 70
     0
102
RTVSPropertyOp39
 70
     0
102
RTVSPropertyOp40
 70
     0
102
RTVSPropertyOp41
 70
     0
102
RTVSPropertyOp42
 70
     0
102
RTVSPropertyOp43
 70
     0
102
RTVSPropertyOp44
 70
     0
102
RTVSPropertyOp45
 70
     0
102
RTVSPropertyOp46
 70
     0
102
RTVSPropertyOp47
 70
     0
102
RTVSPropertyOp48
 70
     0
102
RTVSPropertyOp49
 70
     0
102
RTVSPropertyOp50
 70
     0
102
RTVSPropertyOp51
 70
     0
102
RTVSPropertyOp52
 70
     0
102
RTVSPropertyOp53
 70
     0
102
RTVSPropertyOp54
 70
     0
102
RTVSPropertyOp55
 70
     0
102
RTVSPropertyOp56
 70
     0
102
RTVSPropertyOp57
 70
     0
102
RTVSPost2010Prop28
280
     0
102
RTVSPost2010PropOp28
 70
     0
102
RTVSPost2010Prop29
280
     1
102
RTVSPost2010PropOp29
 70
     0
102
RTVSPost2010Prop30
280
     1
102
RTVSPost2010PropOp30
 70
     0
102
RTVSPost2010Prop31
280
     0
102
RTVSPost2010PropOp31
 70
     0
102
RTVSPost2010Prop32
280
     0
102
RTVSPost2010PropOp32
 70
     0
102
RTVSPost2010Prop33
280
     0
102
RTVSPost2010PropOp33
 70
     0
102
RTVSPost2010Prop34
280
     0
102
RTVSPost2010PropOp34
 70
     0
102
RTVSPost2010Prop35
280
     0
102
RTVSPost2010PropOp35
 70
     0
102
RTVSPost2010Prop36
280
     0
102
RTVSPost2010PropOp36
 70
     0
102
RTVSPost2010Prop37
 90
       50
102
RTVSPost2010PropOp37
 70
     0
102
RTVSPost2010Prop38
140
0.0
102
RTVSPost2010PropOp38
 70
     0
102
RTVSPost2010Prop39
140
1.0
102
RTVSPost2010PropOp39
 70
     0
102
RTVSPost2010Prop40
 90
        0
102
RTVSPost2010PropOp40
 70
     0
102
RTVSPost2010Prop41ColorIndex
 90
       18
102
RTVSPost2010Prop41ColorRGB
 90
        0
102
RTVSPost2010PropOp41
 70
     0
102
RTVSPost2010Prop42
 90
       50
102
RTVSPost2010PropOp42
 70
     0
102
RTVSPost2010Prop43
 90
        3
102
RTVSPost2010PropOp43
 70
     0
102
RTVSPost2010Prop44ColorIndex
 90
        5
102
RTVSPost2010Prop44ColorRGB
 90
      255
102
RTVSPost2010PropOp44
 70
     0
102
RTVSPost2010Prop45
280
     0
102
RTVSPost2010PropOp45
 70
     0
102
RTVSPost2010Prop46
 90
       50
102
RTVSPost2010PropOp46
 70
     0
102
RTVSPost2010Prop47
 90
       50
102
RTVSPost2010PropOp47
 70
     0
102
RTVSPost2010Prop48
 90
       50
102
RTVSPost2010PropOp48
 70
     0
102
RTVSPost2010Prop49
280
     0
102
RTVSPost2010PropOp49
 70
     0
102
RTVSPost2010Prop50
 90
       50
102
RTVSPost2010PropOp50
 70
     0
102
RTVSPost2010Prop51ColorIndex
 90
      256
102
RTVSPost2010Prop51ColorRGB
 90
-16777216
102
RTVSPost2010PropOp51
 70
     0
102
RTVSPost2010Prop52
140
1.0
102
RTVSPost2010PropOp52
 70
     0
102
RTVSPost2010Prop53
 90
        2
102
RTVSPost2010PropOp53
 70
     0
102
RTVSPost2010Prop54
  1
strokes_ogs.tif
102
RTVSPost2010PropOp54
 70
     0
102
RTVSPost2010Prop55
280
     0
102
RTVSPost2010PropOp55
 70
     0
102
RTVSPost2010Prop56
140
1.0
102
RTVSPost2010PropOp56
 70
     0
102
RTVSPost2010Prop57
140
1.0
102
RTVSPost2010PropOp57
 70
     0
  0
XRECORD
  5
1DD
102
{ACAD_REACTORS
330
1DC
102
}
330
1DC
100
AcDbXrecord
280
     1
102
RTVSPropertyOp0
 70
     1
102
RTVSPropertyOp1
 70
     1
102
RTVSPropertyOp2
 70
     1
102
RTVSPropertyOp3
 70
     1
102
RTVSPropertyOp4
 70
     1
102
RTVSPropertyOp5
 70
     1
102
RTVSPropertyOp6
 70
     1
102
RTVSPropertyOp7
 70
     1
102
RTVSPropertyOp8
 70
     1
102
RTVSPropertyOp9
 70
     1
102
RTVSPropertyOp10
 70
     1
102
RTVSPropertyOp11
 70
     1
102
RTVSPropertyOp12
 70
     1
102
RTVSPropertyOp13
 70
     1
102
RTVSPropertyOp14
 70
     1
102
RTVSPropertyOp15
 70
     1
102
RTVSPropertyOp16
 70
     1
102
RTVSPropertyOp17
 70
     1
102
RTVSPropertyOp18
 70
     1
102
RTVSPropertyOp19
 70
     1
102
RTVSPropertyOp20
 70
     1
102
RTVSPropertyOp21
 70
     1
102
RTVSPropertyOp22
 70
     1
102
RTVSPropertyOp23
 70
     1
102
RTVSPropertyOp24
 70
     1
102
RTVSPropertyOp25
 70
     1
102
RTVSPropertyOp26
 70
     1
102
RTVSPropertyOp27
 70
     1
102
RTVSPropertyOp28
 70
     1
102
RTVSPropertyOp29
 70
     1
102
RTVSPropertyOp30
 70
     1
102
RTVSPropertyOp31
 70
     1
102
RTVSPropertyOp32
 70
     1
102
RTVSPropertyOp33
 70
     1
102
RTVSPropertyOp34
 70
     1
102
RTVSPropertyOp35
 70
     1
102
RTVSPropertyOp36
 70
     1
102
RTVSPropertyOp37
 70
     1
102
RTVSPropertyOp38
 70
     1
102
RTVSPropertyOp39
 70
     1
102
RTVSPropertyOp40
 70
     1
102
RTVSPropertyOp41
 70
     1
102
RTVSPropertyOp42
 70
     1
102
RTVSPropertyOp43
 70
     1
102
RTVSPropertyOp44
 70
     1
102
RTVSPropertyOp45
 70
     1
102
RTVSPropertyOp46
 70
     1
102
RTVSPropertyOp47
 70
     1
102
RTVSPropertyOp48
 70
     1
102
RTVSPropertyOp49
 70
     1
102
RTVSPropertyOp50
 70
     1
102
RTVSPropertyOp51
 70
     0
102
RTVSPropertyOp52
 70
     0
102
RTVSPropertyOp53
 70
     1
102
RTVSPropertyOp54
 70
     1
102
RTVSPropertyOp55
 70
     1
102
RTVSPropertyOp56
 70
     1
102
RTVSPropertyOp57
 70
     1
102
RTVSPost2010Prop28
280
     0
102
RTVSPost2010PropOp28
 70
     1
102
RTVSPost2010Prop29
280
     1
102
RTVSPost2010PropOp29
 70
     1
102
RTVSPost2010Prop30
280
     1
102
RTVSPost2010PropOp30
 70
     1
102
RTVSPost2010Prop31
280
     0
102
RTVSPost2010PropOp31
 70
     1
102
RTVSPost2010Prop32
280
     0
102
RTVSPost2010PropOp32
 70
     1
102
RTVSPost2010Prop33
280
     0
102
RTVSPost2010PropOp33
 70
     1
102
RTVSPost2010Prop34
280
     0
102
RTVSPost2010PropOp34
 70
     1
102
RTVSPost2010Prop35
280
     0
102
RTVSPost2010PropOp35
 70
     1
102
RTVSPost2010Prop36
280
     0
102
RTVSPost2010PropOp36
 70
     1
102
RTVSPost2010Prop37
 90
       50
102
RTVSPost2010PropOp37
 70
     1
102
RTVSPost2010Prop38
140
0.0
102
RTVSPost2010PropOp38
 70
     1
102
RTVSPost2010Prop39
140
1.0
102
RTVSPost2010PropOp39
 70
     1
102
RTVSPost2010Prop40
 90
        0
102
RTVSPost2010PropOp40
 70
     1
102
RTVSPost2010Prop41ColorIndex
 90
       18
102
RTVSPost2010Prop41ColorRGB
 90
        0
102
RTVSPost2010PropOp41
 70
     1
102
RTVSPost2010Prop42
 90
       50
102
RTVSPost2010PropOp42
 70
     1
102
RTVSPost2010Prop43
 90
        3
102
RTVSPost2010PropOp43
 70
     1
102
RTVSPost2010Prop44ColorIndex
 90
        5
102
RTVSPost2010Prop44ColorRGB
 90
      255
102
RTVSPost2010PropOp44
 70
     1
102
RTVSPost2010Prop45
280
     0
102
RTVSPost2010PropOp45
 70
     1
102
RTVSPost2010Prop46
 90
       50
102
RTVSPost2010PropOp46
 70
     1
102
RTVSPost2010Prop47
 90
       50
102
RTVSPost2010PropOp47
 70
     1
102
RTVSPost2010Prop48
 90
       50
102
RTVSPost2010PropOp48
 70
     1
102
RTVSPost2010Prop49
280
     0
102
RTVSPost2010PropOp49
 70
     1
102
RTVSPost2010Prop50
 90
       50
102
RTVSPost2010PropOp50
 70
     1
102
RTVSPost2010Prop51ColorIndex
 90
      256
102
RTVSPost2010Prop51ColorRGB
 90
-16777216
102
RTVSPost2010PropOp51
 70
     0
102
RTVSPost2010Prop52
140
1.0
102
RTVSPost2010PropOp52
 70
     0
102
RTVSPost2010Prop53
 90
        2
102
RTVSPost2010PropOp53
 70
     1
102
RTVSPost2010Prop54
  1
strokes_ogs.tif
102
RTVSPost2010PropOp54
 70
     1
102
RTVSPost2010Prop55
280
     0
102
RTVSPost2010PropOp55
 70
     1
102
RTVSPost2010Prop56
140
1.0
102
RTVSPost2010PropOp56
 70
     1
102
RTVSPost2010Prop57
140
1.0
102
RTVSPost2010PropOp57
 70
     1
  0
XRECORD
  5
1FB
102
{ACAD_REACTORS
330
1FA
102
}
330
1FA
100
AcDbXrecord
280
     1
102
RTVSPropertyOp0
 70
     1
102
RTVSPropertyOp1
 70
     1
102
RTVSPropertyOp2
 70
     1
102
RTVSPropertyOp3
 70
     1
102
RTVSPropertyOp4
 70
     1
102
RTVSPropertyOp5
 70
     1
102
RTVSPropertyOp6
 70
     1
102
RTVSPropertyOp7
 70
     1
102
RTVSPropertyOp8
 70
     1
102
RTVSPropertyOp9
 70
     1
102
RTVSPropertyOp10
 70
     1
102
RTVSPropertyOp11
 70
     1
102
RTVSPropertyOp12
 70
     1
102
RTVSPropertyOp13
 70
     1
102
RTVSPropertyOp14
 70
     1
102
RTVSPropertyOp15
 70
     1
102
RTVSPropertyOp16
 70
     1
102
RTVSPropertyOp17
 70
     1
102
RTVSPropertyOp18
 70
     1
102
RTVSPropertyOp19
 70
     1
102
RTVSPropertyOp20
 70
     1
102
RTVSPropertyOp21
 70
     1
102
RTVSPropertyOp22
 70
     1
102
RTVSPropertyOp23
 70
     1
102
RTVSPropertyOp24
 70
     1
102
RTVSPropertyOp25
 70
     1
102
RTVSPropertyOp26
 70
     1
102
RTVSPropertyOp27
 70
     1
102
RTVSPropertyOp28
 70
     1
102
RTVSPropertyOp29
 70
     1
102
RTVSPropertyOp30
 70
     1
102
RTVSPropertyOp31
 70
     1
102
RTVSPropertyOp32
 70
     1
102
RTVSPropertyOp33
 70
     1
102
RTVSPropertyOp34
 70
     1
102
RTVSPropertyOp35
 70
     1
102
RTVSPropertyOp36
 70
     1
102
RTVSPropertyOp37
 70
     1
102
RTVSPropertyOp38
 70
     1
102
RTVSPropertyOp39
 70
     1
102
RTVSPropertyOp40
 70
     1
102
RTVSPropertyOp41
 70
     1
102
RTVSPropertyOp42
 70
     1
102
RTVSPropertyOp43
 70
     1
102
RTVSPropertyOp44
 70
     1
102
RTVSPropertyOp45
 70
     1
102
RTVSPropertyOp46
 70
     1
102
RTVSPropertyOp47
 70
     1
102
RTVSPropertyOp48
 70
     1
102
RTVSPropertyOp49
 70
     1
102
RTVSPropertyOp50
 70
     1
102
RTVSPropertyOp51
 70
     0
102
RTVSPropertyOp52
 70
     0
102
RTVSPropertyOp53
 70
     1
102
RTVSPropertyOp54
 70
     1
102
RTVSPropertyOp55
 70
     1
102
RTVSPropertyOp56
 70
     1
102
RTVSPropertyOp57
 70
     1
102
RTVSPost2010Prop28
280
     0
102
RTVSPost2010PropOp28
 70
     1
102
RTVSPost2010Prop29
280
     1
102
RTVSPost2010PropOp29
 70
     1
102
RTVSPost2010Prop30
280
     1
102
RTVSPost2010PropOp30
 70
     1
102
RTVSPost2010Prop31
280
     0
102
RTVSPost2010PropOp31
 70
     1
102
RTVSPost2010Prop32
280
     0
102
RTVSPost2010PropOp32
 70
     1
102
RTVSPost2010Prop33
280
     0
102
RTVSPost2010PropOp33
 70
     1
102
RTVSPost2010Prop34
280
     0
102
RTVSPost2010PropOp34
 70
     1
102
RTVSPost2010Prop35
280
     0
102
RTVSPost2010PropOp35
 70
     1
102
RTVSPost2010Prop36
280
     0
102
RTVSPost2010PropOp36
 70
     1
102
RTVSPost2010Prop37
 90
       50
102
RTVSPost2010PropOp37
 70
     1
102
RTVSPost2010Prop38
140
0.0
102
RTVSPost2010PropOp38
 70
     1
102
RTVSPost2010Prop39
140
1.0
102
RTVSPost2010PropOp39
 70
     1
102
RTVSPost2010Prop40
 90
        0
102
RTVSPost2010PropOp40
 70
     1
102
RTVSPost2010Prop41ColorIndex
 90
       18
102
RTVSPost2010Prop41ColorRGB
 90
        0
102
RTVSPost2010PropOp41
 70
     1
102
RTVSPost2010Prop42
 90
       50
102
RTVSPost2010PropOp42
 70
     1
102
RTVSPost2010Prop43
 90
        3
102
RTVSPost2010PropOp43
 70
     1
102
RTVSPost2010Prop44ColorIndex
 90
        5
102
RTVSPost2010Prop44ColorRGB
 90
      255
102
RTVSPost2010PropOp44
 70
     1
102
RTVSPost2010Prop45
280
     0
102
RTVSPost2010PropOp45
 70
     1
102
RTVSPost2010Prop46
 90
       50
102
RTVSPost2010PropOp46
 70
     1
102
RTVSPost2010Prop47
 90
       50
102
RTVSPost2010PropOp47
 70
     1
102
RTVSPost2010Prop48
 90
       50
102
RTVSPost2010PropOp48
 70
     1
102
RTVSPost2010Prop49
280
     0
102
RTVSPost2010PropOp49
 70
     1
102
RTVSPost2010Prop50
 90
       50
102
RTVSPost2010PropOp50
 70
     1
102
RTVSPost2010Prop51ColorIndex
 90
      256
102
RTVSPost2010Prop51ColorRGB
 90
-16777216
102
RTVSPost2010PropOp51
 70
     0
102
RTVSPost2010Prop52
140
1.0
102
RTVSPost2010PropOp52
 70
     0
102
RTVSPost2010Prop53
 90
        2
102
RTVSPost2010PropOp53
 70
     1
102
RTVSPost2010Prop54
  1
strokes_ogs.tif
102
RTVSPost2010PropOp54
 70
     1
102
RTVSPost2010Prop55
280
     0
102
RTVSPost2010PropOp55
 70
     1
102
RTVSPost2010Prop56
140
1.0
102
RTVSPost2010PropOp56
 70
     1
102
RTVSPost2010Prop57
140
1.0
102
RTVSPost2010PropOp57
 70
     1
  0
XRECORD
  5
1F9
102
{ACAD_REACTORS
330
1F8
102
}
330
1F8
100
AcDbXrecord
280
     1
102
RTVSPropertyOp0
 70
     1
102
RTVSPropertyOp1
 70
     1
102
RTVSPropertyOp2
 70
     1
102
RTVSPropertyOp3
 70
     1
102
RTVSPropertyOp4
 70
     1
102
RTVSPropertyOp5
 70
     1
102
RTVSPropertyOp6
 70
     1
102
RTVSPropertyOp7
 70
     1
102
RTVSPropertyOp8
 70
     1
102
RTVSPropertyOp9
 70
     1
102
RTVSPropertyOp10
 70
     1
102
RTVSPropertyOp11
 70
     1
102
RTVSPropertyOp12
 70
     1
102
RTVSPropertyOp13
 70
     1
102
RTVSPropertyOp14
 70
     1
102
RTVSPropertyOp15
 70
     1
102
RTVSPropertyOp16
 70
     1
102
RTVSPropertyOp17
 70
     1
102
RTVSPropertyOp18
 70
     1
102
RTVSPropertyOp19
 70
     1
102
RTVSPropertyOp20
 70
     1
102
RTVSPropertyOp21
 70
     1
102
RTVSPropertyOp22
 70
     1
102
RTVSPropertyOp23
 70
     1
102
RTVSPropertyOp24
 70
     1
102
RTVSPropertyOp25
 70
     1
102
RTVSPropertyOp26
 70
     1
102
RTVSPropertyOp27
 70
     1
102
RTVSPropertyOp28
 70
     1
102
RTVSPropertyOp29
 70
     1
102
RTVSPropertyOp30
 70
     1
102
RTVSPropertyOp31
 70
     1
102
RTVSPropertyOp32
 70
     1
102
RTVSPropertyOp33
 70
     1
102
RTVSPropertyOp34
 70
     1
102
RTVSPropertyOp35
 70
     1
102
RTVSPropertyOp36
 70
     1
102
RTVSPropertyOp37
 70
     1
102
RTVSPropertyOp38
 70
     1
102
RTVSPropertyOp39
 70
     1
102
RTVSPropertyOp40
 70
     1
102
RTVSPropertyOp41
 70
     1
102
RTVSPropertyOp42
 70
     1
102
RTVSPropertyOp43
 70
     1
102
RTVSPropertyOp44
 70
     1
102
RTVSPropertyOp45
 70
     1
102
RTVSPropertyOp46
 70
     1
102
RTVSPropertyOp47
 70
     1
102
RTVSPropertyOp48
 70
     1
102
RTVSPropertyOp49
 70
     1
102
RTVSPropertyOp50
 70
     1
102
RTVSPropertyOp51
 70
     0
102
RTVSPropertyOp52
 70
     0
102
RTVSPropertyOp53
 70
     1
102
RTVSPropertyOp54
 70
     1
102
RTVSPropertyOp55
 70
     1
102
RTVSPropertyOp56
 70
     1
102
RTVSPropertyOp57
 70
     1
102
RTVSPost2010Prop28
280
     0
102
RTVSPost2010PropOp28
 70
     1
102
RTVSPost2010Prop29
280
     1
102
RTVSPost2010PropOp29
 70
     1
102
RTVSPost2010Prop30
280
     1
102
RTVSPost2010PropOp30
 70
     1
102
RTVSPost2010Prop31
280
     0
102
RTVSPost2010PropOp31
 70
     1
102
RTVSPost2010Prop32
280
     0
102
RTVSPost2010PropOp32
 70
     1
102
RTVSPost2010Prop33
280
     0
102
RTVSPost2010PropOp33
 70
     1
102
RTVSPost2010Prop34
280
     0
102
RTVSPost2010PropOp34
 70
     1
102
RTVSPost2010Prop35
280
     0
102
RTVSPost2010PropOp35
 70
     1
102
RTVSPost2010Prop36
280
     0
102
RTVSPost2010PropOp36
 70
     1
102
RTVSPost2010Prop37
 90
       50
102
RTVSPost2010PropOp37
 70
     1
102
RTVSPost2010Prop38
140
0.0
102
RTVSPost2010PropOp38
 70
     1
102
RTVSPost2010Prop39
140
1.0
102
RTVSPost2010PropOp39
 70
     1
102
RTVSPost2010Prop40
 90
        0
102
RTVSPost2010PropOp40
 70
     1
102
RTVSPost2010Prop41ColorIndex
 90
       18
102
RTVSPost2010Prop41ColorRGB
 90
        0
102
RTVSPost2010PropOp41
 70
     1
102
RTVSPost2010Prop42
 90
       50
102
RTVSPost2010PropOp42
 70
     1
102
RTVSPost2010Prop43
 90
        3
102
RTVSPost2010PropOp43
 70
     1
102
RTVSPost2010Prop44ColorIndex
 90
        5
102
RTVSPost2010Prop44ColorRGB
 90
      255
102
RTVSPost2010PropOp44
 70
     1
102
RTVSPost2010Prop45
280
     0
102
RTVSPost2010PropOp45
 70
     1
102
RTVSPost2010Prop46
 90
       50
102
RTVSPost2010PropOp46
 70
     1
102
RTVSPost2010Prop47
 90
       50
102
RTVSPost2010PropOp47
 70
     1
102
RTVSPost2010Prop48
 90
       50
102
RTVSPost2010PropOp48
 70
     1
102
RTVSPost2010Prop49
280
     0
102
RTVSPost2010PropOp49
 70
     1
102
RTVSPost2010Prop50
 90
       50
102
RTVSPost2010PropOp50
 70
     1
102
RTVSPost2010Prop51ColorIndex
 90
      256
102
RTVSPost2010Prop51ColorRGB
 90
-16777216
102
RTVSPost2010PropOp51
 70
     0
102
RTVSPost2010Prop52
140
1.0
102
RTVSPost2010PropOp52
 70
     0
102
RTVSPost2010Prop53
 90
        2
102
RTVSPost2010PropOp53
 70
     1
102
RTVSPost2010Prop54
  1
strokes_ogs.tif
102
RTVSPost2010PropOp54
 70
     1
102
RTVSPost2010Prop55
280
     0
102
RTVSPost2010PropOp55
 70
     1
102
RTVSPost2010Prop56
140
1.0
102
RTVSPost2010PropOp56
 70
     1
102
RTVSPost2010Prop57
140
1.0
102
RTVSPost2010PropOp57
 70
     1
  0
XRECORD
  5
1F3
102
{ACAD_REACTORS
330
1F2
102
}
330
1F2
100
AcDbXrecord
280
     1
102
RTVSPropertyOp0
 70
     1
102
RTVSPropertyOp1
 70
     1
102
RTVSPropertyOp2
 70
     1
102
RTVSPropertyOp3
 70
     1
102
RTVSPropertyOp4
 70
     1
102
RTVSPropertyOp5
 70
     1
102
RTVSPropertyOp6
 70
     1
102
RTVSPropertyOp7
 70
     1
102
RTVSPropertyOp8
 70
     1
102
RTVSPropertyOp9
 70
     1
102
RTVSPropertyOp10
 70
     1
102
RTVSPropertyOp11
 70
     1
102
RTVSPropertyOp12
 70
     1
102
RTVSPropertyOp13
 70
     1
102
RTVSPropertyOp14
 70
     1
102
RTVSPropertyOp15
 70
     1
102
RTVSPropertyOp16
 70
     1
102
RTVSPropertyOp17
 70
     1
102
RTVSPropertyOp18
 70
     1
102
RTVSPropertyOp19
 70
     1
102
RTVSPropertyOp20
 70
     1
102
RTVSPropertyOp21
 70
     1
102
RTVSPropertyOp22
 70
     1
102
RTVSPropertyOp23
 70
     1
102
RTVSPropertyOp24
 70
     1
102
RTVSPropertyOp25
 70
     1
102
RTVSPropertyOp26
 70
     1
102
RTVSPropertyOp27
 70
     1
102
RTVSPropertyOp28
 70
     1
102
RTVSPropertyOp29
 70
     1
102
RTVSPropertyOp30
 70
     1
102
RTVSPropertyOp31
 70
     1
102
RTVSPropertyOp32
 70
     1
102
RTVSPropertyOp33
 70
     1
102
RTVSPropertyOp34
 70
     1
102
RTVSPropertyOp35
 70
     1
102
RTVSPropertyOp36
 70
     1
102
RTVSPropertyOp37
 70
     1
102
RTVSPropertyOp38
 70
     1
102
RTVSPropertyOp39
 70
     1
102
RTVSPropertyOp40
 70
     1
102
RTVSPropertyOp41
 70
     1
102
RTVSPropertyOp42
 70
     1
102
RTVSPropertyOp43
 70
     1
102
RTVSPropertyOp44
 70
     1
102
RTVSPropertyOp45
 70
     1
102
RTVSPropertyOp46
 70
     1
102
RTVSPropertyOp47
 70
     1
102
RTVSPropertyOp48
 70
     1
102
RTVSPropertyOp49
 70
     1
102
RTVSPropertyOp50
 70
     1
102
RTVSPropertyOp51
 70
     0
102
RTVSPropertyOp52
 70
     0
102
RTVSPropertyOp53
 70
     1
102
RTVSPropertyOp54
 70
     1
102
RTVSPropertyOp55
 70
     1
102
RTVSPropertyOp56
 70
     1
102
RTVSPropertyOp57
 70
     1
102
RTVSPost2010Prop28
280
     0
102
RTVSPost2010PropOp28
 70
     1
102
RTVSPost2010Prop29
280
     1
102
RTVSPost2010PropOp29
 70
     1
102
RTVSPost2010Prop30
280
     1
102
RTVSPost2010PropOp30
 70
     1
102
RTVSPost2010Prop31
280
     0
102
RTVSPost2010PropOp31
 70
     1
102
RTVSPost2010Prop32
280
     0
102
RTVSPost2010PropOp32
 70
     1
102
RTVSPost2010Prop33
280
     0
102
RTVSPost2010PropOp33
 70
     1
102
RTVSPost2010Prop34
280
     0
102
RTVSPost2010PropOp34
 70
     1
102
RTVSPost2010Prop35
280
     0
102
RTVSPost2010PropOp35
 70
     1
102
RTVSPost2010Prop36
280
     0
102
RTVSPost2010PropOp36
 70
     1
102
RTVSPost2010Prop37
 90
       50
102
RTVSPost2010PropOp37
 70
     1
102
RTVSPost2010Prop38
140
0.0
102
RTVSPost2010PropOp38
 70
     1
102
RTVSPost2010Prop39
140
1.0
102
RTVSPost2010PropOp39
 70
     1
102
RTVSPost2010Prop40
 90
        0
102
RTVSPost2010PropOp40
 70
     1
102
RTVSPost2010Prop41ColorIndex
 90
       18
102
RTVSPost2010Prop41ColorRGB
 90
        0
102
RTVSPost2010PropOp41
 70
     1
102
RTVSPost2010Prop42
 90
       50
102
RTVSPost2010PropOp42
 70
     1
102
RTVSPost2010Prop43
 90
        3
102
RTVSPost2010PropOp43
 70
     1
102
RTVSPost2010Prop44ColorIndex
 90
        5
102
RTVSPost2010Prop44ColorRGB
 90
      255
102
RTVSPost2010PropOp44
 70
     1
102
RTVSPost2010Prop45
280
     0
102
RTVSPost2010PropOp45
 70
     1
102
RTVSPost2010Prop46
 90
       50
102
RTVSPost2010PropOp46
 70
     1
102
RTVSPost2010Prop47
 90
       50
102
RTVSPost2010PropOp47
 70
     1
102
RTVSPost2010Prop48
 90
       50
102
RTVSPost2010PropOp48
 70
     1
102
RTVSPost2010Prop49
280
     0
102
RTVSPost2010PropOp49
 70
     1
102
RTVSPost2010Prop50
 90
       50
102
RTVSPost2010PropOp50
 70
     1
102
RTVSPost2010Prop51ColorIndex
 90
      256
102
RTVSPost2010Prop51ColorRGB
 90
-16777216
102
RTVSPost2010PropOp51
 70
     0
102
RTVSPost2010Prop52
140
1.0
102
RTVSPost2010PropOp52
 70
     0
102
RTVSPost2010Prop53
 90
        2
102
RTVSPost2010PropOp53
 70
     1
102
RTVSPost2010Prop54
  1
strokes_ogs.tif
102
RTVSPost2010PropOp54
 70
     1
102
RTVSPost2010Prop55
280
     0
102
RTVSPost2010PropOp55
 70
     1
102
RTVSPost2010Prop56
140
1.0
102
RTVSPost2010PropOp56
 70
     1
102
RTVSPost2010Prop57
140
1.0
102
RTVSPost2010PropOp57
 70
     1
  0
XRECORD
  5
1F5
102
{ACAD_REACTORS
330
1F4
102
}
330
1F4
100
AcDbXrecord
280
     1
102
RTVSPropertyOp0
 70
     1
102
RTVSPropertyOp1
 70
     1
102
RTVSPropertyOp2
 70
     1
102
RTVSPropertyOp3
 70
     1
102
RTVSPropertyOp4
 70
     1
102
RTVSPropertyOp5
 70
     1
102
RTVSPropertyOp6
 70
     1
102
RTVSPropertyOp7
 70
     1
102
RTVSPropertyOp8
 70
     1
102
RTVSPropertyOp9
 70
     1
102
RTVSPropertyOp10
 70
     1
102
RTVSPropertyOp11
 70
     1
102
RTVSPropertyOp12
 70
     1
102
RTVSPropertyOp13
 70
     1
102
RTVSPropertyOp14
 70
     1
102
RTVSPropertyOp15
 70
     1
102
RTVSPropertyOp16
 70
     1
102
RTVSPropertyOp17
 70
     1
102
RTVSPropertyOp18
 70
     1
102
RTVSPropertyOp19
 70
     1
102
RTVSPropertyOp20
 70
     1
102
RTVSPropertyOp21
 70
     1
102
RTVSPropertyOp22
 70
     1
102
RTVSPropertyOp23
 70
     1
102
RTVSPropertyOp24
 70
     1
102
RTVSPropertyOp25
 70
     1
102
RTVSPropertyOp26
 70
     1
102
RTVSPropertyOp27
 70
     1
102
RTVSPropertyOp28
 70
     1
102
RTVSPropertyOp29
 70
     1
102
RTVSPropertyOp30
 70
     1
102
RTVSPropertyOp31
 70
     1
102
RTVSPropertyOp32
 70
     1
102
RTVSPropertyOp33
 70
     1
102
RTVSPropertyOp34
 70
     1
102
RTVSPropertyOp35
 70
     1
102
RTVSPropertyOp36
 70
     1
102
RTVSPropertyOp37
 70
     1
102
RTVSPropertyOp38
 70
     1
102
RTVSPropertyOp39
 70
     1
102
RTVSPropertyOp40
 70
     1
102
RTVSPropertyOp41
 70
     1
102
RTVSPropertyOp42
 70
     1
102
RTVSPropertyOp43
 70
     1
102
RTVSPropertyOp44
 70
     1
102
RTVSPropertyOp45
 70
     1
102
RTVSPropertyOp46
 70
     1
102
RTVSPropertyOp47
 70
     1
102
RTVSPropertyOp48
 70
     1
102
RTVSPropertyOp49
 70
     1
102
RTVSPropertyOp50
 70
     1
102
RTVSPropertyOp51
 70
     0
102
RTVSPropertyOp52
 70
     0
102
RTVSPropertyOp53
 70
     1
102
RTVSPropertyOp54
 70
     1
102
RTVSPropertyOp55
 70
     1
102
RTVSPropertyOp56
 70
     1
102
RTVSPropertyOp57
 70
     1
102
RTVSPost2010Prop28
280
     0
102
RTVSPost2010PropOp28
 70
     1
102
RTVSPost2010Prop29
280
     1
102
RTVSPost2010PropOp29
 70
     1
102
RTVSPost2010Prop30
280
     1
102
RTVSPost2010PropOp30
 70
     1
102
RTVSPost2010Prop31
280
     0
102
RTVSPost2010PropOp31
 70
     1
102
RTVSPost2010Prop32
280
     0
102
RTVSPost2010PropOp32
 70
     1
102
RTVSPost2010Prop33
280
     0
102
RTVSPost2010PropOp33
 70
     1
102
RTVSPost2010Prop34
280
     0
102
RTVSPost2010PropOp34
 70
     1
102
RTVSPost2010Prop35
280
     0
102
RTVSPost2010PropOp35
 70
     1
102
RTVSPost2010Prop36
280
     0
102
RTVSPost2010PropOp36
 70
     1
102
RTVSPost2010Prop37
 90
       50
102
RTVSPost2010PropOp37
 70
     1
102
RTVSPost2010Prop38
140
0.0
102
RTVSPost2010PropOp38
 70
     1
102
RTVSPost2010Prop39
140
1.0
102
RTVSPost2010PropOp39
 70
     1
102
RTVSPost2010Prop40
 90
        0
102
RTVSPost2010PropOp40
 70
     1
102
RTVSPost2010Prop41ColorIndex
 90
       18
102
RTVSPost2010Prop41ColorRGB
 90
        0
102
RTVSPost2010PropOp41
 70
     1
102
RTVSPost2010Prop42
 90
       50
102
RTVSPost2010PropOp42
 70
     1
102
RTVSPost2010Prop43
 90
        3
102
RTVSPost2010PropOp43
 70
     1
102
RTVSPost2010Prop44ColorIndex
 90
        5
102
RTVSPost2010Prop44ColorRGB
 90
      255
102
RTVSPost2010PropOp44
 70
     1
102
RTVSPost2010Prop45
280
     0
102
RTVSPost2010PropOp45
 70
     1
102
RTVSPost2010Prop46
 90
       50
102
RTVSPost2010PropOp46
 70
     1
102
RTVSPost2010Prop47
 90
       50
102
RTVSPost2010PropOp47
 70
     1
102
RTVSPost2010Prop48
 90
       50
102
RTVSPost2010PropOp48
 70
     1
102
RTVSPost2010Prop49
280
     0
102
RTVSPost2010PropOp49
 70
     1
102
RTVSPost2010Prop50
 90
       50
102
RTVSPost2010PropOp50
 70
     1
102
RTVSPost2010Prop51ColorIndex
 90
      256
102
RTVSPost2010Prop51ColorRGB
 90
-16777216
102
RTVSPost2010PropOp51
 70
     0
102
RTVSPost2010Prop52
140
1.0
102
RTVSPost2010PropOp52
 70
     0
102
RTVSPost2010Prop53
 90
        2
102
RTVSPost2010PropOp53
 70
     1
102
RTVSPost2010Prop54
  1
strokes_ogs.tif
102
RTVSPost2010PropOp54
 70
     1
102
RTVSPost2010Prop55
280
     0
102
RTVSPost2010PropOp55
 70
     1
102
RTVSPost2010Prop56
140
1.0
102
RTVSPost2010PropOp56
 70
     1
102
RTVSPost2010Prop57
140
1.0
102
RTVSPost2010PropOp57
 70
     1
  0
XRECORD
  5
1E5
102
{ACAD_REACTORS
330
1E4
102
}
330
1E4
100
AcDbXrecord
280
     1
102
RTVSPropertyOp0
 70
     1
102
RTVSPropertyOp1
 70
     1
102
RTVSPropertyOp2
 70
     1
102
RTVSPropertyOp3
 70
     1
102
RTVSPropertyOp4
 70
     1
102
RTVSPropertyOp5
 70
     1
102
RTVSPropertyOp6
 70
     1
102
RTVSPropertyOp7
 70
     1
102
RTVSPropertyOp8
 70
     1
102
RTVSPropertyOp9
 70
     1
102
RTVSPropertyOp10
 70
     1
102
RTVSPropertyOp11
 70
     1
102
RTVSPropertyOp12
 70
     1
102
RTVSPropertyOp13
 70
     1
102
RTVSPropertyOp14
 70
     1
102
RTVSPropertyOp15
 70
     1
102
RTVSPropertyOp16
 70
     1
102
RTVSPropertyOp17
 70
     1
102
RTVSPropertyOp18
 70
     1
102
RTVSPropertyOp19
 70
     1
102
RTVSPropertyOp20
 70
     1
102
RTVSPropertyOp21
 70
     1
102
RTVSPropertyOp22
 70
     1
102
RTVSPropertyOp23
 70
     1
102
RTVSPropertyOp24
 70
     1
102
RTVSPropertyOp25
 70
     1
102
RTVSPropertyOp26
 70
     1
102
RTVSPropertyOp27
 70
     1
102
RTVSPropertyOp28
 70
     1
102
RTVSPropertyOp29
 70
     1
102
RTVSPropertyOp30
 70
     1
102
RTVSPropertyOp31
 70
     1
102
RTVSPropertyOp32
 70
     1
102
RTVSPropertyOp33
 70
     1
102
RTVSPropertyOp34
 70
     1
102
RTVSPropertyOp35
 70
     1
102
RTVSPropertyOp36
 70
     1
102
RTVSPropertyOp37
 70
     1
102
RTVSPropertyOp38
 70
     1
102
RTVSPropertyOp39
 70
     1
102
RTVSPropertyOp40
 70
     1
102
RTVSPropertyOp41
 70
     1
102
RTVSPropertyOp42
 70
     1
102
RTVSPropertyOp43
 70
     1
102
RTVSPropertyOp44
 70
     1
102
RTVSPropertyOp45
 70
     1
102
RTVSPropertyOp46
 70
     1
102
RTVSPropertyOp47
 70
     1
102
RTVSPropertyOp48
 70
     1
102
RTVSPropertyOp49
 70
     1
102
RTVSPropertyOp50
 70
     1
102
RTVSPropertyOp51
 70
     0
102
RTVSPropertyOp52
 70
     0
102
RTVSPropertyOp53
 70
     1
102
RTVSPropertyOp54
 70
     1
102
RTVSPropertyOp55
 70
     1
102
RTVSPropertyOp56
 70
     1
102
RTVSPropertyOp57
 70
     1
102
RTVSPost2010Prop28
280
     0
102
RTVSPost2010PropOp28
 70
     1
102
RTVSPost2010Prop29
280
     1
102
RTVSPost2010PropOp29
 70
     1
102
RTVSPost2010Prop30
280
     1
102
RTVSPost2010PropOp30
 70
     1
102
RTVSPost2010Prop31
280
     0
102
RTVSPost2010PropOp31
 70
     1
102
RTVSPost2010Prop32
280
     0
102
RTVSPost2010PropOp32
 70
     1
102
RTVSPost2010Prop33
280
     0
102
RTVSPost2010PropOp33
 70
     1
102
RTVSPost2010Prop34
280
     0
102
RTVSPost2010PropOp34
 70
     1
102
RTVSPost2010Prop35
280
     0
102
RTVSPost2010PropOp35
 70
     1
102
RTVSPost2010Prop36
280
     0
102
RTVSPost2010PropOp36
 70
     1
102
RTVSPost2010Prop37
 90
       50
102
RTVSPost2010PropOp37
 70
     1
102
RTVSPost2010Prop38
140
0.0
102
RTVSPost2010PropOp38
 70
     1
102
RTVSPost2010Prop39
140
1.0
102
RTVSPost2010PropOp39
 70
     1
102
RTVSPost2010Prop40
 90
        0
102
RTVSPost2010PropOp40
 70
     1
102
RTVSPost2010Prop41ColorIndex
 90
       18
102
RTVSPost2010Prop41ColorRGB
 90
        0
102
RTVSPost2010PropOp41
 70
     1
102
RTVSPost2010Prop42
 90
       50
102
RTVSPost2010PropOp42
 70
     1
102
RTVSPost2010Prop43
 90
        3
102
RTVSPost2010PropOp43
 70
     1
102
RTVSPost2010Prop44ColorIndex
 90
        5
102
RTVSPost2010Prop44ColorRGB
 90
      255
102
RTVSPost2010PropOp44
 70
     1
102
RTVSPost2010Prop45
280
     0
102
RTVSPost2010PropOp45
 70
     1
102
RTVSPost2010Prop46
 90
       50
102
RTVSPost2010PropOp46
 70
     1
102
RTVSPost2010Prop47
 90
       50
102
RTVSPost2010PropOp47
 70
     1
102
RTVSPost2010Prop48
 90
       50
102
RTVSPost2010PropOp48
 70
     1
102
RTVSPost2010Prop49
280
     0
102
RTVSPost2010PropOp49
 70
     1
102
RTVSPost2010Prop50
 90
       50
102
RTVSPost2010PropOp50
 70
     1
102
RTVSPost2010Prop51ColorIndex
 90
      256
102
RTVSPost2010Prop51ColorRGB
 90
-16777216
102
RTVSPost2010PropOp51
 70
     0
102
RTVSPost2010Prop52
140
1.0
102
RTVSPost2010PropOp52
 70
     0
102
RTVSPost2010Prop53
 90
        2
102
RTVSPost2010PropOp53
 70
     1
102
RTVSPost2010Prop54
  1
strokes_ogs.tif
102
RTVSPost2010PropOp54
 70
     1
102
RTVSPost2010Prop55
280
     0
102
RTVSPost2010PropOp55
 70
     1
102
RTVSPost2010Prop56
140
1.0
102
RTVSPost2010PropOp56
 70
     1
102
RTVSPost2010Prop57
140
1.0
102
RTVSPost2010PropOp57
 70
     1
  0
XRECORD
  5
1D7
102
{ACAD_REACTORS
330
1D6
102
}
330
1D6
100
AcDbXrecord
280
     1
102
RTVSPropertyOp0
 70
     1
102
RTVSPropertyOp1
 70
     1
102
RTVSPropertyOp2
 70
     1
102
RTVSPropertyOp3
 70
     1
102
RTVSPropertyOp4
 70
     1
102
RTVSPropertyOp5
 70
     1
102
RTVSPropertyOp6
 70
     1
102
RTVSPropertyOp7
 70
     1
102
RTVSPropertyOp8
 70
     1
102
RTVSPropertyOp9
 70
     1
102
RTVSPropertyOp10
 70
     1
102
RTVSPropertyOp11
 70
     1
102
RTVSPropertyOp12
 70
     1
102
RTVSPropertyOp13
 70
     1
102
RTVSPropertyOp14
 70
     1
102
RTVSPropertyOp15
 70
     1
102
RTVSPropertyOp16
 70
     1
102
RTVSPropertyOp17
 70
     1
102
RTVSPropertyOp18
 70
     1
102
RTVSPropertyOp19
 70
     1
102
RTVSPropertyOp20
 70
     1
102
RTVSPropertyOp21
 70
     1
102
RTVSPropertyOp22
 70
     1
102
RTVSPropertyOp23
 70
     1
102
RTVSPropertyOp24
 70
     1
102
RTVSPropertyOp25
 70
     1
102
RTVSPropertyOp26
 70
     1
102
RTVSPropertyOp27
 70
     1
102
RTVSPropertyOp28
 70
     1
102
RTVSPropertyOp29
 70
     1
102
RTVSPropertyOp30
 70
     1
102
RTVSPropertyOp31
 70
     1
102
RTVSPropertyOp32
 70
     1
102
RTVSPropertyOp33
 70
     1
102
RTVSPropertyOp34
 70
     1
102
RTVSPropertyOp35
 70
     1
102
RTVSPropertyOp36
 70
     1
102
RTVSPropertyOp37
 70
     1
102
RTVSPropertyOp38
 70
     1
102
RTVSPropertyOp39
 70
     1
102
RTVSPropertyOp40
 70
     1
102
RTVSPropertyOp41
 70
     1
102
RTVSPropertyOp42
 70
     1
102
RTVSPropertyOp43
 70
     1
102
RTVSPropertyOp44
 70
     1
102
RTVSPropertyOp45
 70
     1
102
RTVSPropertyOp46
 70
     1
102
RTVSPropertyOp47
 70
     1
102
RTVSPropertyOp48
 70
     1
102
RTVSPropertyOp49
 70
     1
102
RTVSPropertyOp50
 70
     1
102
RTVSPropertyOp51
 70
     0
102
RTVSPropertyOp52
 70
     0
102
RTVSPropertyOp53
 70
     1
102
RTVSPropertyOp54
 70
     1
102
RTVSPropertyOp55
 70
     1
102
RTVSPropertyOp56
 70
     1
102
RTVSPropertyOp57
 70
     1
102
RTVSPost2010Prop28
280
     0
102
RTVSPost2010PropOp28
 70
     1
102
RTVSPost2010Prop29
280
     1
102
RTVSPost2010PropOp29
 70
     1
102
RTVSPost2010Prop30
280
     1
102
RTVSPost2010PropOp30
 70
     1
102
RTVSPost2010Prop31
280
     0
102
RTVSPost2010PropOp31
 70
     1
102
RTVSPost2010Prop32
280
     0
102
RTVSPost2010PropOp32
 70
     1
102
RTVSPost2010Prop33
280
     0
102
RTVSPost2010PropOp33
 70
     1
102
RTVSPost2010Prop34
280
     0
102
RTVSPost2010PropOp34
 70
     1
102
RTVSPost2010Prop35
280
     0
102
RTVSPost2010PropOp35
 70
     1
102
RTVSPost2010Prop36
280
     0
102
RTVSPost2010PropOp36
 70
     1
102
RTVSPost2010Prop37
 90
       50
102
RTVSPost2010PropOp37
 70
     1
102
RTVSPost2010Prop38
140
0.0
102
RTVSPost2010PropOp38
 70
     1
102
RTVSPost2010Prop39
140
1.0
102
RTVSPost2010PropOp39
 70
     1
102
RTVSPost2010Prop40
 90
        0
102
RTVSPost2010PropOp40
 70
     1
102
RTVSPost2010Prop41ColorIndex
 90
       18
102
RTVSPost2010Prop41ColorRGB
 90
        0
102
RTVSPost2010PropOp41
 70
     1
102
RTVSPost2010Prop42
 90
       50
102
RTVSPost2010PropOp42
 70
     1
102
RTVSPost2010Prop43
 90
        3
102
RTVSPost2010PropOp43
 70
     1
102
RTVSPost2010Prop44ColorIndex
 90
        5
102
RTVSPost2010Prop44ColorRGB
 90
      255
102
RTVSPost2010PropOp44
 70
     1
102
RTVSPost2010Prop45
280
     0
102
RTVSPost2010PropOp45
 70
     1
102
RTVSPost2010Prop46
 90
       50
102
RTVSPost2010PropOp46
 70
     1
102
RTVSPost2010Prop47
 90
       50
102
RTVSPost2010PropOp47
 70
     1
102
RTVSPost2010Prop48
 90
       50
102
RTVSPost2010PropOp48
 70
     1
102
RTVSPost2010Prop49
280
     0
102
RTVSPost2010PropOp49
 70
     1
102
RTVSPost2010Prop50
 90
       50
102
RTVSPost2010PropOp50
 70
     1
102
RTVSPost2010Prop51ColorIndex
 90
      256
102
RTVSPost2010Prop51ColorRGB
 90
-16777216
102
RTVSPost2010PropOp51
 70
     0
102
RTVSPost2010Prop52
140
1.0
102
RTVSPost2010PropOp52
 70
     0
102
RTVSPost2010Prop53
 90
        2
102
RTVSPost2010PropOp53
 70
     1
102
RTVSPost2010Prop54
  1
strokes_ogs.tif
102
RTVSPost2010PropOp54
 70
     1
102
RTVSPost2010Prop55
280
     0
102
RTVSPost2010PropOp55
 70
     1
102
RTVSPost2010Prop56
140
1.0
102
RTVSPost2010PropOp56
 70
     1
102
RTVSPost2010Prop57
140
1.0
102
RTVSPost2010PropOp57
 70
     1
  0
XRECORD
  5
1F7
102
{ACAD_REACTORS
330
1F6
102
}
330
1F6
100
AcDbXrecord
280
     1
102
RTVSPropertyOp0
 70
     1
102
RTVSPropertyOp1
 70
     1
102
RTVSPropertyOp2
 70
     1
102
RTVSPropertyOp3
 70
     1
102
RTVSPropertyOp4
 70
     1
102
RTVSPropertyOp5
 70
     1
102
RTVSPropertyOp6
 70
     1
102
RTVSPropertyOp7
 70
     1
102
RTVSPropertyOp8
 70
     1
102
RTVSPropertyOp9
 70
     1
102
RTVSPropertyOp10
 70
     1
102
RTVSPropertyOp11
 70
     1
102
RTVSPropertyOp12
 70
     1
102
RTVSPropertyOp13
 70
     1
102
RTVSPropertyOp14
 70
     1
102
RTVSPropertyOp15
 70
     1
102
RTVSPropertyOp16
 70
     1
102
RTVSPropertyOp17
 70
     1
102
RTVSPropertyOp18
 70
     1
102
RTVSPropertyOp19
 70
     1
102
RTVSPropertyOp20
 70
     1
102
RTVSPropertyOp21
 70
     1
102
RTVSPropertyOp22
 70
     1
102
RTVSPropertyOp23
 70
     1
102
RTVSPropertyOp24
 70
     1
102
RTVSPropertyOp25
 70
     1
102
RTVSPropertyOp26
 70
     1
102
RTVSPropertyOp27
 70
     1
102
RTVSPropertyOp28
 70
     1
102
RTVSPropertyOp29
 70
     1
102
RTVSPropertyOp30
 70
     1
102
RTVSPropertyOp31
 70
     1
102
RTVSPropertyOp32
 70
     1
102
RTVSPropertyOp33
 70
     1
102
RTVSPropertyOp34
 70
     1
102
RTVSPropertyOp35
 70
     1
102
RTVSPropertyOp36
 70
     1
102
RTVSPropertyOp37
 70
     1
102
RTVSPropertyOp38
 70
     1
102
RTVSPropertyOp39
 70
     1
102
RTVSPropertyOp40
 70
     1
102
RTVSPropertyOp41
 70
     1
102
RTVSPropertyOp42
 70
     1
102
RTVSPropertyOp43
 70
     1
102
RTVSPropertyOp44
 70
     1
102
RTVSPropertyOp45
 70
     1
102
RTVSPropertyOp46
 70
     1
102
RTVSPropertyOp47
 70
     1
102
RTVSPropertyOp48
 70
     1
102
RTVSPropertyOp49
 70
     1
102
RTVSPropertyOp50
 70
     1
102
RTVSPropertyOp51
 70
     0
102
RTVSPropertyOp52
 70
     0
102
RTVSPropertyOp53
 70
     1
102
RTVSPropertyOp54
 70
     1
102
RTVSPropertyOp55
 70
     1
102
RTVSPropertyOp56
 70
     1
102
RTVSPropertyOp57
 70
     1
102
RTVSPost2010Prop28
280
     0
102
RTVSPost2010PropOp28
 70
     1
102
RTVSPost2010Prop29
280
     1
102
RTVSPost2010PropOp29
 70
     1
102
RTVSPost2010Prop30
280
     1
102
RTVSPost2010PropOp30
 70
     1
102
RTVSPost2010Prop31
280
     0
102
RTVSPost2010PropOp31
 70
     1
102
RTVSPost2010Prop32
280
     0
102
RTVSPost2010PropOp32
 70
     1
102
RTVSPost2010Prop33
280
     0
102
RTVSPost2010PropOp33
 70
     1
102
RTVSPost2010Prop34
280
     0
102
RTVSPost2010PropOp34
 70
     1
102
RTVSPost2010Prop35
280
     0
102
RTVSPost2010PropOp35
 70
     1
102
RTVSPost2010Prop36
280
     0
102
RTVSPost2010PropOp36
 70
     1
102
RTVSPost2010Prop37
 90
       50
102
RTVSPost2010PropOp37
 70
     1
102
RTVSPost2010Prop38
140
0.0
102
RTVSPost2010PropOp38
 70
     1
102
RTVSPost2010Prop39
140
1.0
102
RTVSPost2010PropOp39
 70
     1
102
RTVSPost2010Prop40
 90
        0
102
RTVSPost2010PropOp40
 70
     1
102
RTVSPost2010Prop41ColorIndex
 90
       18
102
RTVSPost2010Prop41ColorRGB
 90
        0
102
RTVSPost2010PropOp41
 70
     1
102
RTVSPost2010Prop42
 90
       50
102
RTVSPost2010PropOp42
 70
     1
102
RTVSPost2010Prop43
 90
        3
102
RTVSPost2010PropOp43
 70
     1
102
RTVSPost2010Prop44ColorIndex
 90
        5
102
RTVSPost2010Prop44ColorRGB
 90
      255
102
RTVSPost2010PropOp44
 70
     1
102
RTVSPost2010Prop45
280
     0
102
RTVSPost2010PropOp45
 70
     1
102
RTVSPost2010Prop46
 90
       50
102
RTVSPost2010PropOp46
 70
     1
102
RTVSPost2010Prop47
 90
       50
102
RTVSPost2010PropOp47
 70
     1
102
RTVSPost2010Prop48
 90
       50
102
RTVSPost2010PropOp48
 70
     1
102
RTVSPost2010Prop49
280
     0
102
RTVSPost2010PropOp49
 70
     1
102
RTVSPost2010Prop50
 90
       50
102
RTVSPost2010PropOp50
 70
     1
102
RTVSPost2010Prop51ColorIndex
 90
      256
102
RTVSPost2010Prop51ColorRGB
 90
-16777216
102
RTVSPost2010PropOp51
 70
     0
102
RTVSPost2010Prop52
140
1.0
102
RTVSPost2010PropOp52
 70
     0
102
RTVSPost2010Prop53
 90
        2
102
RTVSPost2010PropOp53
 70
     1
102
RTVSPost2010Prop54
  1
strokes_ogs.tif
102
RTVSPost2010PropOp54
 70
     1
102
RTVSPost2010Prop55
280
     0
102
RTVSPost2010PropOp55
 70
     1
102
RTVSPost2010Prop56
140
1.0
102
RTVSPost2010PropOp56
 70
     1
102
RTVSPost2010Prop57
140
1.0
102
RTVSPost2010PropOp57
 70
     1
  0
ENDSEC
  0
EOF
